ISO-10303-21;
HEADER;
FILE_DESCRIPTION (( 'STEP AP203' ),
    '1' );
FILE_NAME ('D030463-v2_aLIGO_SUS_HSTS_Upper Blade Clamp, Lower Side_Angled 2.0.STEP',
    '2010-06-23T20:20:26',
    ( 'Dwayne Giardina' ),
    ( 'CA Institute of Technology' ),
    'SwSTEP 2.0',
    'SolidWorks 2009',
    '' );
FILE_SCHEMA (( 'CONFIG_CONTROL_DESIGN' ));
ENDSEC;

DATA;
#1 = EDGE_CURVE ( 'NONE', #291, #289, #120, .T. ) ;
#2 = EDGE_CURVE ( 'NONE', #360, #355, #210, .T. ) ;
#3 = AXIS2_PLACEMENT_3D ( 'NONE', #252, #281, #269 ) ;
#4 = EDGE_CURVE ( 'NONE', #291, #290, #179, .T. ) ;
#5 = EDGE_CURVE ( 'NONE', #356, #287, #150, .T. ) ;
#6 = CC_DESIGN_SECURITY_CLASSIFICATION ( #62, ( #45 ) ) ;
#7 = EDGE_CURVE ( 'NONE', #295, #292, #119, .T. ) ;
#8 = EDGE_CURVE ( 'NONE', #285, #288, #208, .T. ) ;
#9 = AXIS2_PLACEMENT_3D ( 'NONE', #256, #299, #300 ) ;
#10 = EDGE_CURVE ( 'NONE', #287, #286, #383, .T. ) ;
#11 = EDGE_CURVE ( 'NONE', #356, #284, #209, .T. ) ;
#12 = EDGE_CURVE ( 'NONE', #292, #355, #211, .T. ) ;
#13 = PRODUCT_DEFINITION ( 'UNKNOWN', '', #45, #386 ) ;
#14 = AXIS2_PLACEMENT_3D ( 'NONE', #282, #264, #271 ) ;
#15 = APPROVAL ( #243, 'UNSPECIFIED' ) ;
#16 = CC_DESIGN_PERSON_AND_ORGANIZATION_ASSIGNMENT ( #221, #241, ( #13 ) ) ;
#17 = APPROVAL ( #249, 'UNSPECIFIED' ) ;
#18 = EDGE_CURVE ( 'NONE', #295, #360, #193, .T. ) ;
#19 = CC_DESIGN_PERSON_AND_ORGANIZATION_ASSIGNMENT ( #78, #250, ( #45 ) ) ;
#20 = PRODUCT_RELATED_PRODUCT_CATEGORY ( 'detail', '', ( #57 ) ) ;
#21 = EDGE_CURVE ( 'NONE', #294, #357, #114, .T. ) ;
#22 = EDGE_CURVE ( 'NONE', #294, #285, #202, .T. ) ;
#23 = EDGE_CURVE ( 'NONE', #357, #288, #388, .T. ) ;
#24 = EDGE_CURVE ( 'NONE', #286, #287, #387, .T. ) ;
#25 = EDGE_CURVE ( 'NONE', #290, #355, #132, .T. ) ;
#26 = AXIS2_PLACEMENT_3D ( 'NONE', #345, #354, #338 ) ;
#27 = AXIS2_PLACEMENT_3D ( 'NONE', #321, #323, #273 ) ;
#28 = AXIS2_PLACEMENT_3D ( 'NONE', #332, #328, #329 ) ;
#29 = AXIS2_PLACEMENT_3D ( 'NONE', #320, #257, #258 ) ;
#30 = AXIS2_PLACEMENT_3D ( 'NONE', #316, #315, #314 ) ;
#31 = EDGE_CURVE ( 'NONE', #285, #294, #216, .T. ) ;
#32 = AXIS2_PLACEMENT_3D ( 'NONE', #372, #366, #379 ) ;
#33 = AXIS2_PLACEMENT_3D ( 'NONE', #376, #365, #377 ) ;
#34 = EDGE_CURVE ( 'NONE', #293, #290, #219, .T. ) ;
#35 = CC_DESIGN_DATE_AND_TIME_ASSIGNMENT ( #136, #242, ( #13 ) ) ;
#36 = AXIS2_PLACEMENT_3D ( 'NONE', #313, #312, #311 ) ;
#37 = EDGE_CURVE ( 'NONE', #293, #289, #121, .T. ) ;
#38 = EDGE_CURVE ( 'NONE', #293, #360, #199, .T. ) ;
#39 = EDGE_CURVE ( 'NONE', #288, #357, #384, .T. ) ;
#40 = EDGE_CURVE ( 'NONE', #284, #356, #215, .T. ) ;
#41 = EDGE_CURVE ( 'NONE', #295, #289, #159, .T. ) ;
#42 = EDGE_CURVE ( 'NONE', #284, #286, #173, .T. ) ;
#43 = CC_DESIGN_APPROVAL ( #17, ( #62 ) ) ;
#44 = CC_DESIGN_PERSON_AND_ORGANIZATION_ASSIGNMENT ( #63, #247, ( #62 ) ) ;
#45 = PRODUCT_DEFINITION_FORMATION_WITH_SPECIFIED_SOURCE ( 'ANY', '', #57, .NOT_KNOWN. ) ;
#46 = EDGE_CURVE ( 'NONE', #292, #291, #135, .T. ) ;
#47 = CC_DESIGN_APPROVAL ( #15, ( #45 ) ) ;
#48 = CC_DESIGN_PERSON_AND_ORGANIZATION_ASSIGNMENT ( #172, #236, ( #57 ) ) ;
#49 = APPROVAL ( #239, 'UNSPECIFIED' ) ;
#50 = CC_DESIGN_APPROVAL ( #49, ( #13 ) ) ;
#51 = AXIS2_PLACEMENT_3D ( 'NONE', #319, #358, #318 ) ;
#52 = CC_DESIGN_DATE_AND_TIME_ASSIGNMENT ( #75, #248, ( #62 ) ) ;
#53 = AXIS2_PLACEMENT_3D ( 'NONE', #229, #231, #232 ) ;
#54 = AXIS2_PLACEMENT_3D ( 'NONE', #302, #254, #253 ) ;
#55 = AXIS2_PLACEMENT_3D ( 'NONE', #301, #261, #262 ) ;
#56 = CC_DESIGN_PERSON_AND_ORGANIZATION_ASSIGNMENT ( #79, #245, ( #45 ) ) ;
#57 = PRODUCT ( 'D030463-v2_aLIGO_SUS_HSTS_Upper Blade Clamp, Lower Side_Angled 2.0', 'D030463-v2_aLIGO_SUS_HSTS_Upper Blade Clamp, Lower Side_Angled 2.0', '', ( #235 ) ) ;
#58 = PERSON ( 'UNSPECIFIED', 'UNSPECIFIED', 'UNSPECIFIED', ('UNSPECIFIED'), ('UNSPECIFIED'), ('UNSPECIFIED') ) ;
#59 = MANIFOLD_SOLID_BREP ( 'NONE', #129 ) ;
#60 = ADVANCED_BREP_SHAPE_REPRESENTATION ( 'D030463-v2_aLIGO_SUS_HSTS_Upper Blade Clamp, Lower Side_Angled 2.0', ( #59, #53 ), #122 ) ;
#61 = UNCERTAINTY_MEASURE_WITH_UNIT (LENGTH_MEASURE( 1.000000000000000100E-005 ), #298, 'distance_accuracy_value', 'NONE');
#62 = SECURITY_CLASSIFICATION ( '', '', #251 ) ;
#63 = PERSON_AND_ORGANIZATION ( #58, #222 ) ;
#64 = DATE_AND_TIME ( #66, #68 ) ;
#65 = APPROVAL_DATE_TIME ( #64, #15 ) ;
#66 = CALENDAR_DATE ( 2010, 23, 6 ) ;
#67 = APPROVAL_DATE_TIME ( #70, #17 ) ;
#68 = LOCAL_TIME ( 15, 20, 26.00000000000000000, #175 ) ;
#69 = CALENDAR_DATE ( 2010, 23, 6 ) ;
#70 = DATE_AND_TIME ( #69, #73 ) ;
#71 = LOCAL_TIME ( 15, 20, 26.00000000000000000, #80 ) ;
#72 = CALENDAR_DATE ( 2010, 23, 6 ) ;
#73 = LOCAL_TIME ( 15, 20, 26.00000000000000000, #77 ) ;
#74 = PERSON_AND_ORGANIZATION ( #58, #222 ) ;
#75 = DATE_AND_TIME ( #72, #71 ) ;
#76 = APPROVAL_PERSON_ORGANIZATION ( #74, #17, #246 ) ;
#77 = COORDINATED_UNIVERSAL_TIME_OFFSET ( 6, 0, .BEHIND. ) ;
#78 = PERSON_AND_ORGANIZATION ( #58, #222 ) ;
#79 = PERSON_AND_ORGANIZATION ( #58, #222 ) ;
#80 = COORDINATED_UNIVERSAL_TIME_OFFSET ( 6, 0, .BEHIND. ) ;
#81 = DIMENSIONAL_EXPONENTS ( 1.000000000000000000, 0.0000000000000000000, 0.0000000000000000000, 0.0000000000000000000, 0.0000000000000000000, 0.0000000000000000000, 0.0000000000000000000 ) ;
#82 = ADVANCED_FACE ( 'NONE', ( #144 ), #230, .F. ) ;
#83 = ADVANCED_FACE ( 'NONE', ( #166, #190, #194 ), #263, .F. ) ;
#84 = ADVANCED_FACE ( 'NONE', ( #130 ), #137, .F. ) ;
#85 = ADVANCED_FACE ( 'NONE', ( #158 ), #218, .F. ) ;
#86 = ADVANCED_FACE ( 'NONE', ( #98 ), #206, .F. ) ;
#87 = ADVANCED_FACE ( 'NONE', ( #141 ), #272, .T. ) ;
#88 = ADVANCED_FACE ( 'NONE', ( #111 ), #317, .T. ) ;
#89 = ADVANCED_FACE ( 'NONE', ( #228 ), #203, .F. ) ;
#90 = ADVANCED_FACE ( 'NONE', ( #102, #116, #103 ), #283, .F. ) ;
#91 = ADVANCED_FACE ( 'NONE', ( #226 ), #259, .T. ) ;
#92 = ORIENTED_EDGE ( 'NONE', *, *, #42, .F. ) ;
#93 = ORIENTED_EDGE ( 'NONE', *, *, #8, .T. ) ;
#94 = LENGTH_MEASURE_WITH_UNIT ( LENGTH_MEASURE( 0.02539999999999999900 ), #280 );
#95 = ORIENTED_EDGE ( 'NONE', *, *, #4, .F. ) ;
#96 = EDGE_LOOP ( 'NONE', ( #148, #169, #93, #133 ) ) ;
#97 = ORIENTED_EDGE ( 'NONE', *, *, #31, .T. ) ;
#98 = FACE_OUTER_BOUND ( 'NONE', #110, .T. ) ;
#99 = ORIENTED_EDGE ( 'NONE', *, *, #11, .T. ) ;
#100 = ORIENTED_EDGE ( 'NONE', *, *, #38, .F. ) ;
#101 = ORIENTED_EDGE ( 'NONE', *, *, #23, .F. ) ;
#102 = FACE_BOUND ( 'NONE', #170, .T. ) ;
#103 = FACE_BOUND ( 'NONE', #156, .T. ) ;
#104 = ORIENTED_EDGE ( 'NONE', *, *, #5, .F. ) ;
#105 = ORIENTED_EDGE ( 'NONE', *, *, #1, .F. ) ;
#106 = ORIENTED_EDGE ( 'NONE', *, *, #2, .F. ) ;
#107 = ORIENTED_EDGE ( 'NONE', *, *, #4, .T. ) ;
#108 = ORIENTED_EDGE ( 'NONE', *, *, #12, .T. ) ;
#109 = EDGE_LOOP ( 'NONE', ( #97, #200, #213, #187 ) ) ;
#110 = EDGE_LOOP ( 'NONE', ( #177, #176, #181, #92 ) ) ;
#111 = FACE_OUTER_BOUND ( 'NONE', #185, .T. ) ;
#112 = ORIENTED_EDGE ( 'NONE', *, *, #18, .F. ) ;
#113 = ORIENTED_EDGE ( 'NONE', *, *, #37, .T. ) ;
#114 = LINE ( 'NONE', #359, #212 ) ;
#115 = CALENDAR_DATE ( 2010, 23, 6 ) ;
#116 = FACE_OUTER_BOUND ( 'NONE', #174, .T. ) ;
#117 = APPROVAL_PERSON_ORGANIZATION ( #142, #15, #244 ) ;
#118 = LOCAL_TIME ( 15, 20, 26.00000000000000000, #140 ) ;
#119 = LINE ( 'NONE', #371, #153 ) ;
#120 = LINE ( 'NONE', #296, #195 ) ;
#121 = LINE ( 'NONE', #322, #207 ) ;
#122 =( GEOMETRIC_REPRESENTATION_CONTEXT ( 3 ) GLOBAL_UNCERTAINTY_ASSIGNED_CONTEXT ( ( #61 ) ) GLOBAL_UNIT_ASSIGNED_CONTEXT ( ( #298, #297, #270 ) ) REPRESENTATION_CONTEXT ( 'NONE', 'WORKASPACE' ) );
#123 = VECTOR ( 'NONE', #331, 39.37007874015748100 ) ;
#124 = ORIENTED_EDGE ( 'NONE', *, *, #34, .F. ) ;
#125 = ORIENTED_EDGE ( 'NONE', *, *, #46, .T. ) ;
#126 = APPROVAL_PERSON_ORGANIZATION ( #143, #49, #240 ) ;
#127 = ORIENTED_EDGE ( 'NONE', *, *, #37, .F. ) ;
#128 = EDGE_LOOP ( 'NONE', ( #104, #99, #157, #183 ) ) ;
#129 = CLOSED_SHELL ( 'NONE', ( #86, #89, #88, #87, #91, #82, #84, #85, #83, #90 ) ) ;
#130 = FACE_OUTER_BOUND ( 'NONE', #96, .T. ) ;
#131 = ORIENTED_EDGE ( 'NONE', *, *, #10, .F. ) ;
#132 = LINE ( 'NONE', #339, #161 ) ;
#133 = ORIENTED_EDGE ( 'NONE', *, *, #39, .T. ) ;
#134 = VECTOR ( 'NONE', #327, 39.37007874015748100 ) ;
#135 = LINE ( 'NONE', #336, #146 ) ;
#136 = DATE_AND_TIME ( #115, #138 ) ;
#137 = CYLINDRICAL_SURFACE ( 'NONE', #30, 0.1285000000000000900 ) ;
#138 = LOCAL_TIME ( 15, 20, 26.00000000000000000, #152 ) ;
#139 = ORIENTED_EDGE ( 'NONE', *, *, #12, .F. ) ;
#140 = COORDINATED_UNIVERSAL_TIME_OFFSET ( 6, 0, .BEHIND. ) ;
#141 = FACE_OUTER_BOUND ( 'NONE', #155, .T. ) ;
#142 = PERSON_AND_ORGANIZATION ( #58, #222 ) ;
#143 = PERSON_AND_ORGANIZATION ( #58, #222 ) ;
#144 = FACE_OUTER_BOUND ( 'NONE', #186, .T. ) ;
#145 = VECTOR ( 'NONE', #362, 39.37007874015748100 ) ;
#146 = VECTOR ( 'NONE', #335, 39.37007874015748100 ) ;
#147 = ORIENTED_EDGE ( 'NONE', *, *, #25, .T. ) ;
#148 = ORIENTED_EDGE ( 'NONE', *, *, #21, .F. ) ;
#149 = VECTOR ( 'NONE', #373, 39.37007874015748100 ) ;
#150 = LINE ( 'NONE', #368, #197 ) ;
#151 = EDGE_LOOP ( 'NONE', ( #164, #101 ) ) ;
#152 = COORDINATED_UNIVERSAL_TIME_OFFSET ( 6, 0, .BEHIND. ) ;
#153 = VECTOR ( 'NONE', #309, 39.37007874015748100 ) ;
#154 = ORIENTED_EDGE ( 'NONE', *, *, #46, .F. ) ;
#155 = EDGE_LOOP ( 'NONE', ( #184, #191, #105, #154 ) ) ;
#156 = EDGE_LOOP ( 'NONE', ( #192, #189 ) ) ;
#157 = ORIENTED_EDGE ( 'NONE', *, *, #42, .T. ) ;
#158 = FACE_OUTER_BOUND ( 'NONE', #128, .T. ) ;
#159 = LINE ( 'NONE', #330, #134 ) ;
#160 = ORIENTED_EDGE ( 'NONE', *, *, #41, .F. ) ;
#161 = VECTOR ( 'NONE', #337, 39.37007874015748100 ) ;
#162 = ORIENTED_EDGE ( 'NONE', *, *, #24, .F. ) ;
#163 = ORIENTED_EDGE ( 'NONE', *, *, #25, .F. ) ;
#164 = ORIENTED_EDGE ( 'NONE', *, *, #39, .F. ) ;
#165 = CALENDAR_DATE ( 2010, 23, 6 ) ;
#166 = FACE_OUTER_BOUND ( 'NONE', #217, .T. ) ;
#167 = ORIENTED_EDGE ( 'NONE', *, *, #40, .F. ) ;
#168 = EDGE_LOOP ( 'NONE', ( #162, #131 ) ) ;
#169 = ORIENTED_EDGE ( 'NONE', *, *, #22, .T. ) ;
#170 = EDGE_LOOP ( 'NONE', ( #167, #182 ) ) ;
#171 = DATE_AND_TIME ( #165, #118 ) ;
#172 = PERSON_AND_ORGANIZATION ( #58, #222 ) ;
#173 = LINE ( 'NONE', #340, #123 ) ;
#174 = EDGE_LOOP ( 'NONE', ( #180, #108, #106, #112 ) ) ;
#175 = COORDINATED_UNIVERSAL_TIME_OFFSET ( 6, 0, .BEHIND. ) ;
#176 = ORIENTED_EDGE ( 'NONE', *, *, #5, .T. ) ;
#177 = ORIENTED_EDGE ( 'NONE', *, *, #40, .T. ) ;
#178 = ORIENTED_EDGE ( 'NONE', *, *, #1, .T. ) ;
#179 = LINE ( 'NONE', #308, #196 ) ;
#180 = ORIENTED_EDGE ( 'NONE', *, *, #7, .T. ) ;
#181 = ORIENTED_EDGE ( 'NONE', *, *, #10, .T. ) ;
#182 = ORIENTED_EDGE ( 'NONE', *, *, #11, .F. ) ;
#183 = ORIENTED_EDGE ( 'NONE', *, *, #24, .T. ) ;
#184 = ORIENTED_EDGE ( 'NONE', *, *, #7, .F. ) ;
#185 = EDGE_LOOP ( 'NONE', ( #223, #163, #124, #201 ) ) ;
#186 = EDGE_LOOP ( 'NONE', ( #147, #139, #125, #107 ) ) ;
#187 = ORIENTED_EDGE ( 'NONE', *, *, #8, .F. ) ;
#188 = ORIENTED_EDGE ( 'NONE', *, *, #34, .T. ) ;
#189 = ORIENTED_EDGE ( 'NONE', *, *, #22, .F. ) ;
#190 = FACE_BOUND ( 'NONE', #168, .T. ) ;
#191 = ORIENTED_EDGE ( 'NONE', *, *, #41, .T. ) ;
#192 = ORIENTED_EDGE ( 'NONE', *, *, #31, .F. ) ;
#193 = LINE ( 'NONE', #361, #145 ) ;
#194 = FACE_BOUND ( 'NONE', #151, .T. ) ;
#195 = VECTOR ( 'NONE', #380, 39.37007874015748900 ) ;
#196 = VECTOR ( 'NONE', #363, 39.37007874015748100 ) ;
#197 = VECTOR ( 'NONE', #370, 39.37007874015748100 ) ;
#198 = ORIENTED_EDGE ( 'NONE', *, *, #18, .T. ) ;
#199 = LINE ( 'NONE', #325, #227 ) ;
#200 = ORIENTED_EDGE ( 'NONE', *, *, #21, .T. ) ;
#201 = ORIENTED_EDGE ( 'NONE', *, *, #38, .T. ) ;
#202 = CIRCLE ( 'NONE', #32, 0.1285000000000000900 ) ;
#203 = CYLINDRICAL_SURFACE ( 'NONE', #54, 0.1285000000000000900 ) ;
#204 = VECTOR ( 'NONE', #347, 39.37007874015748100 ) ;
#205 = VECTOR ( 'NONE', #306, 39.37007874015748100 ) ;
#206 = CYLINDRICAL_SURFACE ( 'NONE', #55, 0.1285000000000000000 ) ;
#207 = VECTOR ( 'NONE', #341, 39.37007874015748100 ) ;
#208 = LINE ( 'NONE', #367, #149 ) ;
#209 = CIRCLE ( 'NONE', #33, 0.1285000000000000000 ) ;
#210 = LINE ( 'NONE', #375, #205 ) ;
#211 = LINE ( 'NONE', #346, #204 ) ;
#212 = VECTOR ( 'NONE', #369, 39.37007874015748100 ) ;
#213 = ORIENTED_EDGE ( 'NONE', *, *, #23, .T. ) ;
#214 = VECTOR ( 'NONE', #352, 39.37007874015748900 ) ;
#215 = CIRCLE ( 'NONE', #28, 0.1285000000000000000 ) ;
#216 = CIRCLE ( 'NONE', #26, 0.1285000000000000900 ) ;
#217 = EDGE_LOOP ( 'NONE', ( #188, #95, #178, #127 ) ) ;
#218 = CYLINDRICAL_SURFACE ( 'NONE', #36, 0.1285000000000000000 ) ;
#219 = LINE ( 'NONE', #353, #214 ) ;
#220 = EDGE_LOOP ( 'NONE', ( #198, #100, #113, #160 ) ) ;
#221 = PERSON_AND_ORGANIZATION ( #58, #222 ) ;
#222 = ORGANIZATION ( 'UNSPECIFIED', 'UNSPECIFIED', '' ) ;
#223 = ORIENTED_EDGE ( 'NONE', *, *, #2, .T. ) ;
#224 = SHAPE_DEFINITION_REPRESENTATION ( #385, #60 ) ;
#225 = APPROVAL_DATE_TIME ( #171, #49 ) ;
#226 = FACE_OUTER_BOUND ( 'NONE', #220, .T. ) ;
#227 = VECTOR ( 'NONE', #324, 39.37007874015748100 ) ;
#228 = FACE_OUTER_BOUND ( 'NONE', #109, .T. ) ;
#229 = CARTESIAN_POINT ( 'NONE',  ( 0.0000000000000000000, 0.0000000000000000000, 0.0000000000000000000 ) ) ;
#230 = PLANE ( 'NONE',  #29 ) ;
#231 = DIRECTION ( 'NONE',  ( 0.0000000000000000000, 0.0000000000000000000, 1.000000000000000000 ) ) ;
#232 = DIRECTION ( 'NONE',  ( 1.000000000000000000, 0.0000000000000000000, 0.0000000000000000000 ) ) ;
#233 = APPLICATION_CONTEXT ( 'configuration controlled 3d designs of mechanical parts and assemblies' ) ;
#234 = APPLICATION_PROTOCOL_DEFINITION ( 'international standard', 'config_control_design', 1994, #233 ) ;
#235 = MECHANICAL_CONTEXT ( 'NONE', #233, 'mechanical' ) ;
#236 = PERSON_AND_ORGANIZATION_ROLE ( 'design_owner' ) ;
#237 = APPLICATION_CONTEXT ( 'configuration controlled 3d designs of mechanical parts and assemblies' ) ;
#238 = APPLICATION_PROTOCOL_DEFINITION ( 'international standard', 'config_control_design', 1994, #237 ) ;
#239 = APPROVAL_STATUS ( 'not_yet_approved' ) ;
#240 = APPROVAL_ROLE ( '' ) ;
#241 = PERSON_AND_ORGANIZATION_ROLE ( 'creator' ) ;
#242 = DATE_TIME_ROLE ( 'creation_date' ) ;
#243 = APPROVAL_STATUS ( 'not_yet_approved' ) ;
#244 = APPROVAL_ROLE ( '' ) ;
#245 = PERSON_AND_ORGANIZATION_ROLE ( 'creator' ) ;
#246 = APPROVAL_ROLE ( '' ) ;
#247 = PERSON_AND_ORGANIZATION_ROLE ( 'classification_officer' ) ;
#248 = DATE_TIME_ROLE ( 'classification_date' ) ;
#249 = APPROVAL_STATUS ( 'not_yet_approved' ) ;
#250 = PERSON_AND_ORGANIZATION_ROLE ( 'design_supplier' ) ;
#251 = SECURITY_CLASSIFICATION_LEVEL ( 'unclassified' ) ;
#252 = CARTESIAN_POINT ( 'NONE',  ( -0.7850000000000002500, -9.613159877505664200E-017, -0.7869999999999999200 ) ) ;
#253 = DIRECTION ( 'NONE',  ( 0.0000000000000000000, 0.0000000000000000000, 1.000000000000000000 ) ) ;
#254 = DIRECTION ( 'NONE',  ( -0.0000000000000000000, 1.000000000000000000, -0.0000000000000000000 ) ) ;
#255 = CARTESIAN_POINT ( 'NONE',  ( 0.7849999999999999200, 0.8585173544099945500, -0.7869999999999999200 ) ) ;
#256 = CARTESIAN_POINT ( 'NONE',  ( -0.7850000000000002500, -3.490128108393781000E-017, -0.7869999999999999200 ) ) ;
#257 = DIRECTION ( 'NONE',  ( 0.0000000000000000000, 0.0000000000000000000, -1.000000000000000000 ) ) ;
#258 = DIRECTION ( 'NONE',  ( -1.000000000000000000, 0.0000000000000000000, 0.0000000000000000000 ) ) ;
#259 = PLANE ( 'NONE',  #9 ) ;
#260 = CARTESIAN_POINT ( 'NONE',  ( -0.3935000000000000700, 0.3937007874015748800, -0.2649999999999998500 ) ) ;
#261 = DIRECTION ( 'NONE',  ( -0.0000000000000000000, 1.000000000000000000, -0.0000000000000000000 ) ) ;
#262 = DIRECTION ( 'NONE',  ( 0.0000000000000000000, 0.0000000000000000000, 1.000000000000000000 ) ) ;
#263 = PLANE ( 'NONE',  #27 ) ;
#264 = DIRECTION ( 'NONE',  ( -0.0000000000000000000, 1.000000000000000000, 0.0000000000000000000 ) ) ;
#265 = CARTESIAN_POINT ( 'NONE',  ( -0.7850000000000002500, 0.8585173544099943300, -0.7869999999999999200 ) ) ;
#266 = CARTESIAN_POINT ( 'NONE',  ( -0.3935000000000000700, 0.3937007874015748800, -0.5220000000000000200 ) ) ;
#267 = CARTESIAN_POINT ( 'NONE',  ( 0.7850000000000001400, 0.3937007874015748800, -0.7869999999999998100 ) ) ;
#268 = CARTESIAN_POINT ( 'NONE',  ( -0.7850000000000002500, 0.3937007874015748800, 0.0000000000000000000 ) ) ;
#269 = DIRECTION ( 'NONE',  ( 0.0000000000000000000, 0.0000000000000000000, 1.000000000000000000 ) ) ;
#270 =( NAMED_UNIT ( * ) SI_UNIT ( $, .STERADIAN. ) SOLID_ANGLE_UNIT ( ) );
#271 = DIRECTION ( 'NONE',  ( 0.0000000000000000000, -0.0000000000000000000, 1.000000000000000000 ) ) ;
#272 = PLANE ( 'NONE',  #51 ) ;
#273 = DIRECTION ( 'NONE',  ( 0.0000000000000000000, -0.03489949670250096200, -0.9993908270190957600 ) ) ;
#274 = CARTESIAN_POINT ( 'NONE',  ( 0.7849999999999999200, 0.8860000000000000100, 0.0000000000000000000 ) ) ;
#275 = CARTESIAN_POINT ( 'NONE',  ( 0.7850000000000001400, 0.3937007874015748800, 0.0000000000000000000 ) ) ;
#276 = CARTESIAN_POINT ( 'NONE',  ( -0.7850000000000002500, 0.8860000000000000100, 0.0000000000000000000 ) ) ;
#277 = CARTESIAN_POINT ( 'NONE',  ( 0.3934999999999999100, 0.3937007874015748800, -0.5220000000000000200 ) ) ;
#278 = CARTESIAN_POINT ( 'NONE',  ( -0.3935000000000000700, 0.8677713583253077200, -0.5220000000000000200 ) ) ;
#279 = CARTESIAN_POINT ( 'NONE',  ( -0.7850000000000002500, 0.3937007874015748800, -0.7869999999999998100 ) ) ;
#280 =( LENGTH_UNIT ( ) NAMED_UNIT ( * ) SI_UNIT ( $, .METRE. ) );
#281 = DIRECTION ( 'NONE',  ( -1.000000000000000000, 0.0000000000000000000, 0.0000000000000000000 ) ) ;
#282 = CARTESIAN_POINT ( 'NONE',  ( -0.7850000000000002500, 0.3937007874015748800, -2.405610610987281900 ) ) ;
#283 = PLANE ( 'NONE',  #14 ) ;
#284 = VERTEX_POINT ( 'NONE', #303 ) ;
#285 = VERTEX_POINT ( 'NONE', #260 ) ;
#286 = VERTEX_POINT ( 'NONE', #304 ) ;
#287 = VERTEX_POINT ( 'NONE', #305 ) ;
#288 = VERTEX_POINT ( 'NONE', #310 ) ;
#289 = VERTEX_POINT ( 'NONE', #255 ) ;
#290 = VERTEX_POINT ( 'NONE', #276 ) ;
#291 = VERTEX_POINT ( 'NONE', #274 ) ;
#292 = VERTEX_POINT ( 'NONE', #275 ) ;
#293 = VERTEX_POINT ( 'NONE', #265 ) ;
#294 = VERTEX_POINT ( 'NONE', #266 ) ;
#295 = VERTEX_POINT ( 'NONE', #267 ) ;
#296 = CARTESIAN_POINT ( 'NONE',  ( 0.7849999999999999200, 0.8860000000000000100, 0.0000000000000000000 ) ) ;
#297 =( NAMED_UNIT ( * ) PLANE_ANGLE_UNIT ( ) SI_UNIT ( $, .RADIAN. ) );
#298 =( CONVERSION_BASED_UNIT ( 'INCH', #94 ) LENGTH_UNIT ( ) NAMED_UNIT ( #81 ) );
#299 = DIRECTION ( 'NONE',  ( 0.0000000000000000000, 0.0000000000000000000, -1.000000000000000000 ) ) ;
#300 = DIRECTION ( 'NONE',  ( -1.000000000000000000, 0.0000000000000000000, 0.0000000000000000000 ) ) ;
#301 = CARTESIAN_POINT ( 'NONE',  ( 0.3934999999999999100, -0.1139999999999999300, -0.3934999999999999600 ) ) ;
#302 = CARTESIAN_POINT ( 'NONE',  ( -0.3935000000000000700, -0.1139999999999999300, -0.3934999999999999100 ) ) ;
#303 = CARTESIAN_POINT ( 'NONE',  ( 0.3934999999999999100, 0.3937007874015748800, -0.2649999999999999600 ) ) ;
#304 = CARTESIAN_POINT ( 'NONE',  ( 0.3934999999999999100, 0.8767459960846867300, -0.2649999999999999600 ) ) ;
#305 = CARTESIAN_POINT ( 'NONE',  ( 0.3934999999999999100, 0.8677713583253077200, -0.5220000000000000200 ) ) ;
#306 = DIRECTION ( 'NONE',  ( -0.0000000000000000000, -0.0000000000000000000, 1.000000000000000000 ) ) ;
#307 = CARTESIAN_POINT ( 'NONE',  ( -0.3935000000000000700, 0.8677713583253077200, -0.5220000000000000200 ) ) ;
#308 = CARTESIAN_POINT ( 'NONE',  ( -0.7850000000000002500, 0.8860000000000000100, 0.0000000000000000000 ) ) ;
#309 = DIRECTION ( 'NONE',  ( -0.0000000000000000000, -0.0000000000000000000, 1.000000000000000000 ) ) ;
#310 = CARTESIAN_POINT ( 'NONE',  ( -0.3935000000000000700, 0.8767459960846867300, -0.2649999999999998500 ) ) ;
#311 = DIRECTION ( 'NONE',  ( 0.0000000000000000000, 0.0000000000000000000, 1.000000000000000000 ) ) ;
#312 = DIRECTION ( 'NONE',  ( -0.0000000000000000000, 1.000000000000000000, -0.0000000000000000000 ) ) ;
#313 = CARTESIAN_POINT ( 'NONE',  ( 0.3934999999999999100, -0.1139999999999999300, -0.3934999999999999600 ) ) ;
#314 = DIRECTION ( 'NONE',  ( 0.0000000000000000000, 0.0000000000000000000, 1.000000000000000000 ) ) ;
#315 = DIRECTION ( 'NONE',  ( -0.0000000000000000000, 1.000000000000000000, -0.0000000000000000000 ) ) ;
#316 = CARTESIAN_POINT ( 'NONE',  ( -0.3935000000000000700, -0.1139999999999999300, -0.3934999999999999100 ) ) ;
#317 = PLANE ( 'NONE',  #3 ) ;
#318 = DIRECTION ( 'NONE',  ( -1.541674939991119000E-016, 1.000000000000000000, 0.0000000000000000000 ) ) ;
#319 = CARTESIAN_POINT ( 'NONE',  ( 0.7849999999999999200, 0.8860000000000000100, -0.7869999999999999200 ) ) ;
#320 = CARTESIAN_POINT ( 'NONE',  ( -0.7850000000000002500, -3.490128108393781000E-017, 0.0000000000000000000 ) ) ;
#321 = CARTESIAN_POINT ( 'NONE',  ( -1.735000000000000500, 0.8859999999999996800, 0.0000000000000000000 ) ) ;
#322 = CARTESIAN_POINT ( 'NONE',  ( -1.735000000000000500, 0.8585173544099942200, -0.7869999999999999200 ) ) ;
#323 = DIRECTION ( 'NONE',  ( 1.540735793272339300E-016, -0.9993908270190957600, 0.03489949670250096200 ) ) ;
#324 = DIRECTION ( 'NONE',  ( -0.0000000000000000000, -1.000000000000000000, -0.0000000000000000000 ) ) ;
#325 = CARTESIAN_POINT ( 'NONE',  ( -0.7850000000000002500, -9.613159877505664200E-017, -0.7869999999999999200 ) ) ;
#326 = CARTESIAN_POINT ( 'NONE',  ( -0.1364999999999999500, 0.8767459960846868400, -0.2649999999999998500 ) ) ;
#327 = DIRECTION ( 'NONE',  ( -1.541674939991119000E-016, 1.000000000000000000, -0.0000000000000000000 ) ) ;
#328 = DIRECTION ( 'NONE',  ( 0.0000000000000000000, -1.000000000000000000, -0.0000000000000000000 ) ) ;
#329 = DIRECTION ( 'NONE',  ( 0.0000000000000000000, 0.0000000000000000000, 1.000000000000000000 ) ) ;
#330 = CARTESIAN_POINT ( 'NONE',  ( 0.7849999999999999200, 0.8860000000000000100, -0.7869999999999999200 ) ) ;
#331 = DIRECTION ( 'NONE',  ( -0.0000000000000000000, 1.000000000000000000, -0.0000000000000000000 ) ) ;
#332 = CARTESIAN_POINT ( 'NONE',  ( 0.3934999999999999100, 0.3937007874015748800, -0.3934999999999999600 ) ) ;
#333 = CARTESIAN_POINT ( 'NONE',  ( -0.3935000000000000700, 0.8677713583253077200, -0.5220000000000000200 ) ) ;
#334 = CARTESIAN_POINT ( 'NONE',  ( -0.1364999999999999500, 0.8677713583253078300, -0.5220000000000000200 ) ) ;
#335 = DIRECTION ( 'NONE',  ( -1.541674939991119000E-016, 1.000000000000000000, -0.0000000000000000000 ) ) ;
#336 = CARTESIAN_POINT ( 'NONE',  ( 0.7849999999999999200, 0.8860000000000000100, 0.0000000000000000000 ) ) ;
#337 = DIRECTION ( 'NONE',  ( -0.0000000000000000000, -1.000000000000000000, -0.0000000000000000000 ) ) ;
#338 = DIRECTION ( 'NONE',  ( 0.0000000000000000000, 0.0000000000000000000, 1.000000000000000000 ) ) ;
#339 = CARTESIAN_POINT ( 'NONE',  ( -0.7850000000000002500, -9.613159877505664200E-017, 0.0000000000000000000 ) ) ;
#340 = CARTESIAN_POINT ( 'NONE',  ( 0.3934999999999999100, -0.1139999999999999300, -0.2649999999999999600 ) ) ;
#341 = DIRECTION ( 'NONE',  ( 1.000000000000000000, 1.541674939991119000E-016, -0.0000000000000000000 ) ) ;
#342 = CARTESIAN_POINT ( 'NONE',  ( -0.3935000000000000700, 0.8767459960846867300, -0.2649999999999998500 ) ) ;
#343 = CARTESIAN_POINT ( 'NONE',  ( -0.3935000000000000700, 0.8767459960846867300, -0.2649999999999998500 ) ) ;
#344 = CARTESIAN_POINT ( 'NONE',  ( -0.6505000000000000800, 0.8767459960846868400, -0.2649999999999998500 ) ) ;
#345 = CARTESIAN_POINT ( 'NONE',  ( -0.3935000000000000700, 0.3937007874015748800, -0.3934999999999999100 ) ) ;
#346 = CARTESIAN_POINT ( 'NONE',  ( -0.7850000000000002500, 0.3937007874015748800, 0.0000000000000000000 ) ) ;
#347 = DIRECTION ( 'NONE',  ( -1.000000000000000000, -0.0000000000000000000, -0.0000000000000000000 ) ) ;
#348 = CARTESIAN_POINT ( 'NONE',  ( 0.3934999999999999100, 0.8677713583253077200, -0.5220000000000000200 ) ) ;
#349 = CARTESIAN_POINT ( 'NONE',  ( 0.6504999999999999700, 0.8677713583253078300, -0.5220000000000000200 ) ) ;
#350 = CARTESIAN_POINT ( 'NONE',  ( 0.6504999999999999700, 0.8767459960846868400, -0.2649999999999999600 ) ) ;
#351 = CARTESIAN_POINT ( 'NONE',  ( 0.3934999999999999100, 0.8767459960846867300, -0.2649999999999999600 ) ) ;
#352 = DIRECTION ( 'NONE',  ( 0.0000000000000000000, 0.03489949670250096200, 0.9993908270190957600 ) ) ;
#353 = CARTESIAN_POINT ( 'NONE',  ( -0.7850000000000002500, 0.8574717018467887800, -0.8169435716458882700 ) ) ;
#354 = DIRECTION ( 'NONE',  ( 0.0000000000000000000, -1.000000000000000000, -0.0000000000000000000 ) ) ;
#355 = VERTEX_POINT ( 'NONE', #268 ) ;
#356 = VERTEX_POINT ( 'NONE', #277 ) ;
#357 = VERTEX_POINT ( 'NONE', #278 ) ;
#358 = DIRECTION ( 'NONE',  ( 1.000000000000000000, 1.541674939991119000E-016, -0.0000000000000000000 ) ) ;
#359 = CARTESIAN_POINT ( 'NONE',  ( -0.3935000000000000700, -0.1139999999999999300, -0.5220000000000000200 ) ) ;
#360 = VERTEX_POINT ( 'NONE', #279 ) ;
#361 = CARTESIAN_POINT ( 'NONE',  ( -0.7850000000000002500, 0.3937007874015748800, -0.7869999999999998100 ) ) ;
#362 = DIRECTION ( 'NONE',  ( -1.000000000000000000, 0.0000000000000000000, 0.0000000000000000000 ) ) ;
#363 = DIRECTION ( 'NONE',  ( -1.000000000000000000, -0.0000000000000000000, -0.0000000000000000000 ) ) ;
#364 = CARTESIAN_POINT ( 'NONE',  ( 0.3934999999999999100, 0.8767459960846867300, -0.2649999999999999600 ) ) ;
#365 = DIRECTION ( 'NONE',  ( 0.0000000000000000000, -1.000000000000000000, -0.0000000000000000000 ) ) ;
#366 = DIRECTION ( 'NONE',  ( 0.0000000000000000000, -1.000000000000000000, -0.0000000000000000000 ) ) ;
#367 = CARTESIAN_POINT ( 'NONE',  ( -0.3935000000000000700, -0.1139999999999999300, -0.2649999999999998500 ) ) ;
#368 = CARTESIAN_POINT ( 'NONE',  ( 0.3934999999999999100, -0.1139999999999999300, -0.5220000000000000200 ) ) ;
#369 = DIRECTION ( 'NONE',  ( -0.0000000000000000000, 1.000000000000000000, -0.0000000000000000000 ) ) ;
#370 = DIRECTION ( 'NONE',  ( -0.0000000000000000000, 1.000000000000000000, -0.0000000000000000000 ) ) ;
#371 = CARTESIAN_POINT ( 'NONE',  ( 0.7850000000000001400, 0.3937007874015748800, -2.405610610987281900 ) ) ;
#372 = CARTESIAN_POINT ( 'NONE',  ( -0.3935000000000000700, 0.3937007874015748800, -0.3934999999999999100 ) ) ;
#373 = DIRECTION ( 'NONE',  ( -0.0000000000000000000, 1.000000000000000000, -0.0000000000000000000 ) ) ;
#374 = CARTESIAN_POINT ( 'NONE',  ( 0.3934999999999999100, 0.8677713583253077200, -0.5220000000000000200 ) ) ;
#375 = CARTESIAN_POINT ( 'NONE',  ( -0.7850000000000002500, 0.3937007874015748800, -2.405610610987281900 ) ) ;
#376 = CARTESIAN_POINT ( 'NONE',  ( 0.3934999999999999100, 0.3937007874015748800, -0.3934999999999999600 ) ) ;
#377 = DIRECTION ( 'NONE',  ( 0.0000000000000000000, 0.0000000000000000000, 1.000000000000000000 ) ) ;
#378 = CARTESIAN_POINT ( 'NONE',  ( -0.6505000000000000800, 0.8677713583253078300, -0.5220000000000000200 ) ) ;
#379 = DIRECTION ( 'NONE',  ( 0.0000000000000000000, 0.0000000000000000000, 1.000000000000000000 ) ) ;
#380 = DIRECTION ( 'NONE',  ( 0.0000000000000000000, -0.03489949670250096900, -0.9993908270190957600 ) ) ;
#381 = CARTESIAN_POINT ( 'NONE',  ( 0.1364999999999999300, 0.8767459960846868400, -0.2649999999999999600 ) ) ;
#382 = CARTESIAN_POINT ( 'NONE',  ( 0.1364999999999999300, 0.8677713583253078300, -0.5220000000000002400 ) ) ;
#383 =( BOUNDED_CURVE ( )  B_SPLINE_CURVE ( 3, ( #374, #382, #381, #364 ),
 .UNSPECIFIED., .F., .T. ) 
 B_SPLINE_CURVE_WITH_KNOTS ( ( 4, 4 ),
 ( 3.141592653589788700, 6.283185307179581800 ),
 .UNSPECIFIED. ) 
 CURVE ( )  GEOMETRIC_REPRESENTATION_ITEM ( )  RATIONAL_B_SPLINE_CURVE ( ( 1.000000000000000000, 0.3333333333333333700, 0.3333333333333333700, 1.000000000000000000 ) ) 
 REPRESENTATION_ITEM ( '' )  );
#384 =( BOUNDED_CURVE ( )  B_SPLINE_CURVE ( 3, ( #342, #326, #334, #333 ),
 .UNSPECIFIED., .F., .T. ) 
 B_SPLINE_CURVE_WITH_KNOTS ( ( 4, 4 ),
 ( -4.440892098500626200E-015, 3.141592653589788700 ),
 .UNSPECIFIED. ) 
 CURVE ( )  GEOMETRIC_REPRESENTATION_ITEM ( )  RATIONAL_B_SPLINE_CURVE ( ( 1.000000000000000000, 0.3333333333333333700, 0.3333333333333333700, 1.000000000000000000 ) ) 
 REPRESENTATION_ITEM ( '' )  );
#385 = PRODUCT_DEFINITION_SHAPE ( 'NONE', 'NONE',  #13 ) ;
#386 = DESIGN_CONTEXT ( 'detailed design', #237, 'design' ) ;
#387 =( BOUNDED_CURVE ( )  B_SPLINE_CURVE ( 3, ( #351, #350, #349, #348 ),
 .UNSPECIFIED., .F., .T. ) 
 B_SPLINE_CURVE_WITH_KNOTS ( ( 4, 4 ),
 ( -4.440892098500626200E-015, 3.141592653589788700 ),
 .UNSPECIFIED. ) 
 CURVE ( )  GEOMETRIC_REPRESENTATION_ITEM ( )  RATIONAL_B_SPLINE_CURVE ( ( 1.000000000000000000, 0.3333333333333333700, 0.3333333333333333700, 1.000000000000000000 ) ) 
 REPRESENTATION_ITEM ( '' )  );
#388 =( BOUNDED_CURVE ( )  B_SPLINE_CURVE ( 3, ( #307, #378, #344, #343 ),
 .UNSPECIFIED., .F., .T. ) 
 B_SPLINE_CURVE_WITH_KNOTS ( ( 4, 4 ),
 ( 3.141592653589788700, 6.283185307179581800 ),
 .UNSPECIFIED. ) 
 CURVE ( )  GEOMETRIC_REPRESENTATION_ITEM ( )  RATIONAL_B_SPLINE_CURVE ( ( 1.000000000000000000, 0.3333333333333333700, 0.3333333333333333700, 1.000000000000000000 ) ) 
 REPRESENTATION_ITEM ( '' )  );
ENDSEC;
END-ISO-10303-21;
