ISO-10303-21;
HEADER;
FILE_DESCRIPTION (( 'STEP AP203' ),
    '1' );
FILE_NAME ('D020679-v2_aLIGO_SUS_HSTS_Upper Blade Clamp, Lower Side, Shim 1mm.STEP',
    '2010-06-24T14:40:11',
    ( 'Dwayne Giardina' ),
    ( 'CA Institute of Technology' ),
    'SwSTEP 2.0',
    'SolidWorks 2009',
    '' );
FILE_SCHEMA (( 'CONFIG_CONTROL_DESIGN' ));
ENDSEC;

DATA;
#1 = UNCERTAINTY_MEASURE_WITH_UNIT (LENGTH_MEASURE( 1.000000000000000100E-005 ), #97, 'distance_accuracy_value', 'NONE');
#2 = MANIFOLD_SOLID_BREP ( 'NONE', #72 ) ;
#3 = ORIENTED_EDGE ( 'NONE', *, *, #285, .T. ) ;
#4 = ORIENTED_EDGE ( 'NONE', *, *, #281, .F. ) ;
#5 = ORIENTED_EDGE ( 'NONE', *, *, #227, .T. ) ;
#6 = ORIENTED_EDGE ( 'NONE', *, *, #280, .F. ) ;
#7 = ORIENTED_EDGE ( 'NONE', *, *, #278, .F. ) ;
#8 = ORIENTED_EDGE ( 'NONE', *, *, #279, .F. ) ;
#9 = ORIENTED_EDGE ( 'NONE', *, *, #239, .T. ) ;
#10 = ORIENTED_EDGE ( 'NONE', *, *, #230, .F. ) ;
#11 = ORIENTED_EDGE ( 'NONE', *, *, #284, .T. ) ;
#12 = ORIENTED_EDGE ( 'NONE', *, *, #285, .F. ) ;
#13 = ORIENTED_EDGE ( 'NONE', *, *, #283, .F. ) ;
#14 = VECTOR ( 'NONE', #365, 39.37007874015748100 ) ;
#15 = ORIENTED_EDGE ( 'NONE', *, *, #275, .F. ) ;
#16 = ORIENTED_EDGE ( 'NONE', *, *, #236, .F. ) ;
#17 = ORIENTED_EDGE ( 'NONE', *, *, #274, .T. ) ;
#18 = LINE ( 'NONE', #379, #192 ) ;
#19 = ORIENTED_EDGE ( 'NONE', *, *, #272, .T. ) ;
#20 = ORIENTED_EDGE ( 'NONE', *, *, #283, .T. ) ;
#21 = ORIENTED_EDGE ( 'NONE', *, *, #279, .T. ) ;
#22 = ORIENTED_EDGE ( 'NONE', *, *, #282, .T. ) ;
#23 = EDGE_LOOP ( 'NONE', ( #8, #17, #38, #11 ) ) ;
#24 = EDGE_LOOP ( 'NONE', ( #22, #59, #64, #37 ) ) ;
#25 = EDGE_LOOP ( 'NONE', ( #63, #21, #40, #50 ) ) ;
#26 = EDGE_LOOP ( 'NONE', ( #57, #69, #5, #19 ) ) ;
#27 = ORIENTED_EDGE ( 'NONE', *, *, #272, .F. ) ;
#28 = EDGE_LOOP ( 'NONE', ( #67, #27, #55, #49 ) ) ;
#29 = ORIENTED_EDGE ( 'NONE', *, *, #238, .F. ) ;
#30 = VECTOR ( 'NONE', #380, 39.37007874015748100 ) ;
#31 = LINE ( 'NONE', #338, #53 ) ;
#32 = ORIENTED_EDGE ( 'NONE', *, *, #277, .F. ) ;
#33 = LINE ( 'NONE', #366, #14 ) ;
#34 = EDGE_LOOP ( 'NONE', ( #7, #13, #3, #48 ) ) ;
#35 = ORIENTED_EDGE ( 'NONE', *, *, #234, .T. ) ;
#36 = EDGE_LOOP ( 'NONE', ( #58, #35, #61, #65 ) ) ;
#37 = ORIENTED_EDGE ( 'NONE', *, *, #278, .T. ) ;
#38 = ORIENTED_EDGE ( 'NONE', *, *, #228, .T. ) ;
#39 = EDGE_LOOP ( 'NONE', ( #62, #54 ) ) ;
#40 = ORIENTED_EDGE ( 'NONE', *, *, #275, .T. ) ;
#41 = EDGE_LOOP ( 'NONE', ( #4, #10, #71, #20 ) ) ;
#42 = EDGE_LOOP ( 'NONE', ( #6, #68 ) ) ;
#43 = EDGE_LOOP ( 'NONE', ( #56, #15 ) ) ;
#44 = LINE ( 'NONE', #381, #30 ) ;
#45 = EDGE_LOOP ( 'NONE', ( #29, #70 ) ) ;
#46 = ORIENTED_EDGE ( 'NONE', *, *, #234, .F. ) ;
#47 = EDGE_LOOP ( 'NONE', ( #66, #12, #32, #16 ) ) ;
#48 = ORIENTED_EDGE ( 'NONE', *, *, #273, .T. ) ;
#49 = ORIENTED_EDGE ( 'NONE', *, *, #230, .T. ) ;
#50 = ORIENTED_EDGE ( 'NONE', *, *, #228, .F. ) ;
#51 = ORIENTED_EDGE ( 'NONE', *, *, #276, .T. ) ;
#52 = ORIENTED_EDGE ( 'NONE', *, *, #280, .T. ) ;
#53 = VECTOR ( 'NONE', #337, 39.37007874015748100 ) ;
#54 = ORIENTED_EDGE ( 'NONE', *, *, #276, .F. ) ;
#55 = ORIENTED_EDGE ( 'NONE', *, *, #236, .T. ) ;
#56 = ORIENTED_EDGE ( 'NONE', *, *, #284, .F. ) ;
#57 = ORIENTED_EDGE ( 'NONE', *, *, #282, .F. ) ;
#58 = ORIENTED_EDGE ( 'NONE', *, *, #286, .T. ) ;
#59 = ORIENTED_EDGE ( 'NONE', *, *, #233, .T. ) ;
#60 = EDGE_LOOP ( 'NONE', ( #46, #51, #9, #52 ) ) ;
#61 = ORIENTED_EDGE ( 'NONE', *, *, #237, .T. ) ;
#62 = ORIENTED_EDGE ( 'NONE', *, *, #286, .F. ) ;
#63 = ORIENTED_EDGE ( 'NONE', *, *, #238, .T. ) ;
#64 = ORIENTED_EDGE ( 'NONE', *, *, #281, .T. ) ;
#65 = ORIENTED_EDGE ( 'NONE', *, *, #239, .F. ) ;
#66 = ORIENTED_EDGE ( 'NONE', *, *, #227, .F. ) ;
#67 = ORIENTED_EDGE ( 'NONE', *, *, #233, .F. ) ;
#68 = ORIENTED_EDGE ( 'NONE', *, *, #237, .F. ) ;
#69 = ORIENTED_EDGE ( 'NONE', *, *, #273, .F. ) ;
#70 = ORIENTED_EDGE ( 'NONE', *, *, #274, .F. ) ;
#71 = ORIENTED_EDGE ( 'NONE', *, *, #277, .T. ) ;
#72 = CLOSED_SHELL ( 'NONE', ( #291, #289, #296, #297, #295, #294, #292, #293, #290, #287 ) ) ;
#73 = CARTESIAN_POINT ( 'NONE',  ( 0.7850000000000001400, 4.775964779907273100E-017, -0.7869999999999999200 ) ) ;
#74 = CARTESIAN_POINT ( 'NONE',  ( -0.7850000000000001400, 0.03937007874015728500, 0.0000000000000000000 ) ) ;
#75 = PERSON_AND_ORGANIZATION_ROLE ( 'design_owner' ) ;
#76 = APPLICATION_CONTEXT ( 'configuration controlled 3d designs of mechanical parts and assemblies' ) ;
#77 = APPROVAL_ROLE ( '' ) ;
#78 = PERSON_AND_ORGANIZATION_ROLE ( 'creator' ) ;
#79 = APPLICATION_PROTOCOL_DEFINITION ( 'international standard', 'config_control_design', 1994, #81 ) ;
#80 = MECHANICAL_CONTEXT ( 'NONE', #81, 'mechanical' ) ;
#81 = APPLICATION_CONTEXT ( 'configuration controlled 3d designs of mechanical parts and assemblies' ) ;
#82 = DIRECTION ( 'NONE',  ( 0.0000000000000000000, 0.0000000000000000000, 1.000000000000000000 ) ) ;
#83 = DIRECTION ( 'NONE',  ( 1.000000000000000000, 0.0000000000000000000, 0.0000000000000000000 ) ) ;
#84 = CARTESIAN_POINT ( 'NONE',  ( -0.7850000000000001400, -9.613159877505663000E-017, 0.0000000000000000000 ) ) ;
#85 = APPROVAL_STATUS ( 'not_yet_approved' ) ;
#86 = APPROVAL_ROLE ( '' ) ;
#87 = PERSON_AND_ORGANIZATION_ROLE ( 'classification_officer' ) ;
#88 = DATE_TIME_ROLE ( 'classification_date' ) ;
#89 = PERSON_AND_ORGANIZATION_ROLE ( 'design_supplier' ) ;
#90 = SECURITY_CLASSIFICATION_LEVEL ( 'unclassified' ) ;
#91 = APPLICATION_PROTOCOL_DEFINITION ( 'international standard', 'config_control_design', 1994, #76 ) ;
#92 = APPROVAL_STATUS ( 'not_yet_approved' ) ;
#93 = CARTESIAN_POINT ( 'NONE',  ( -0.7850000000000001400, -9.613159877505663000E-017, -0.7869999999999999200 ) ) ;
#94 = CARTESIAN_POINT ( 'NONE',  ( 0.7850000000000001400, 4.775964779907273100E-017, 0.0000000000000000000 ) ) ;
#95 = CARTESIAN_POINT ( 'NONE',  ( 0.7850000000000001400, 0.03937007874015728500, -0.7869999999999999200 ) ) ;
#96 =( LENGTH_UNIT ( ) NAMED_UNIT ( * ) SI_UNIT ( $, .METRE. ) );
#97 =( CONVERSION_BASED_UNIT ( 'INCH', #154 ) LENGTH_UNIT ( ) NAMED_UNIT ( #288 ) );
#98 = CARTESIAN_POINT ( 'NONE',  ( -0.3935000000000000700, 0.0000000000000000000, -0.5220000000000000200 ) ) ;
#99 = CARTESIAN_POINT ( 'NONE',  ( 0.3934999999999999100, 0.03937007874015728500, -0.2649999999999999600 ) ) ;
#100 = CARTESIAN_POINT ( 'NONE',  ( -0.3935000000000000700, 0.03937007874015728500, -0.5220000000000000200 ) ) ;
#101 = CARTESIAN_POINT ( 'NONE',  ( -0.3935000000000000700, 0.03937007874015728500, -0.2649999999999998500 ) ) ;
#102 =( NAMED_UNIT ( * ) PLANE_ANGLE_UNIT ( ) SI_UNIT ( $, .RADIAN. ) );
#103 =( NAMED_UNIT ( * ) SI_UNIT ( $, .STERADIAN. ) SOLID_ANGLE_UNIT ( ) );
#104 = APPROVAL_ROLE ( '' ) ;
#105 = PERSON_AND_ORGANIZATION_ROLE ( 'creator' ) ;
#106 = CARTESIAN_POINT ( 'NONE',  ( 0.0000000000000000000, 0.0000000000000000000, 0.0000000000000000000 ) ) ;
#107 = DATE_TIME_ROLE ( 'creation_date' ) ;
#108 = APPROVAL_STATUS ( 'not_yet_approved' ) ;
#109 = DIRECTION ( 'NONE',  ( 1.000000000000000000, 1.224606353822377300E-016, 0.0000000000000000000 ) ) ;
#110 = CARTESIAN_POINT ( 'NONE',  ( -0.3935000000000000700, 0.0000000000000000000, -0.2649999999999998500 ) ) ;
#111 = DIRECTION ( 'NONE',  ( 1.000000000000000000, 0.0000000000000000000, -0.0000000000000000000 ) ) ;
#112 = DIRECTION ( 'NONE',  ( -1.000000000000000000, 0.0000000000000000000, 0.0000000000000000000 ) ) ;
#113 = PLANE ( 'NONE',  #252 ) ;
#114 = CARTESIAN_POINT ( 'NONE',  ( 0.3934999999999999100, 0.0000000000000000000, -0.5220000000000000200 ) ) ;
#115 = CARTESIAN_POINT ( 'NONE',  ( 0.7850000000000001400, 0.03937007874015728500, -0.7869999999999999200 ) ) ;
#116 = PLANE ( 'NONE',  #250 ) ;
#117 = DIRECTION ( 'NONE',  ( 0.0000000000000000000, -0.0000000000000000000, 1.000000000000000000 ) ) ;
#118 = DIRECTION ( 'NONE',  ( 1.224606353822377300E-016, -1.000000000000000000, 0.0000000000000000000 ) ) ;
#119 = PLANE ( 'NONE',  #253 ) ;
#120 = DIRECTION ( 'NONE',  ( -1.000000000000000000, 0.0000000000000000000, 0.0000000000000000000 ) ) ;
#121 = CARTESIAN_POINT ( 'NONE',  ( 0.0000000000000000000, 0.0000000000000000000, -0.7869999999999999200 ) ) ;
#122 = CARTESIAN_POINT ( 'NONE',  ( -0.7850000000000001400, 0.03937007874015728500, -0.7869999999999999200 ) ) ;
#123 = DIRECTION ( 'NONE',  ( 0.0000000000000000000, 0.0000000000000000000, 1.000000000000000000 ) ) ;
#124 = CARTESIAN_POINT ( 'NONE',  ( 0.3934999999999999100, 0.03937007874015728500, -0.5220000000000000200 ) ) ;
#125 = DIRECTION ( 'NONE',  ( -0.0000000000000000000, 0.0000000000000000000, -1.000000000000000000 ) ) ;
#126 = CARTESIAN_POINT ( 'NONE',  ( 0.7850000000000001400, 0.03937007874015728500, 0.0000000000000000000 ) ) ;
#127 = CARTESIAN_POINT ( 'NONE',  ( -0.7850000000000001400, -9.613159877505663000E-017, -0.7869999999999999200 ) ) ;
#128 = DIRECTION ( 'NONE',  ( 0.0000000000000000000, 1.000000000000000000, 0.0000000000000000000 ) ) ;
#129 = CARTESIAN_POINT ( 'NONE',  ( 0.3934999999999999100, 0.0000000000000000000, -0.2649999999999999600 ) ) ;
#130 = CARTESIAN_POINT ( 'NONE',  ( -0.7850000000000001400, 0.03937007874015728500, -0.7869999999999999200 ) ) ;
#131 = PLANE ( 'NONE',  #251 ) ;
#132 = DESIGN_CONTEXT ( 'detailed design', #76, 'design' ) ;
#133 = PRODUCT_DEFINITION_SHAPE ( 'NONE', 'NONE',  #256 ) ;
#134 = CIRCLE ( 'NONE', #247, 0.1285000000000000000 ) ;
#135 = FACE_OUTER_BOUND ( 'NONE', #60, .T. ) ;
#136 = CYLINDRICAL_SURFACE ( 'NONE', #229, 0.1285000000000000900 ) ;
#137 = FACE_OUTER_BOUND ( 'NONE', #25, .T. ) ;
#138 = CYLINDRICAL_SURFACE ( 'NONE', #232, 0.1285000000000000000 ) ;
#139 = FACE_OUTER_BOUND ( 'NONE', #36, .T. ) ;
#140 = CYLINDRICAL_SURFACE ( 'NONE', #231, 0.1285000000000000900 ) ;
#141 = FACE_OUTER_BOUND ( 'NONE', #23, .T. ) ;
#142 = FACE_OUTER_BOUND ( 'NONE', #24, .T. ) ;
#143 = ADVANCED_BREP_SHAPE_REPRESENTATION ( 'D020679-v2_aLIGO_SUS_HSTS_Upper Blade Clamp, Lower Side, Shim 1mm', ( #2, #254 ), #156 ) ;
#144 = FACE_OUTER_BOUND ( 'NONE', #47, .T. ) ;
#145 = CYLINDRICAL_SURFACE ( 'NONE', #235, 0.1285000000000000000 ) ;
#146 = FACE_BOUND ( 'NONE', #43, .T. ) ;
#147 = FACE_BOUND ( 'NONE', #42, .T. ) ;
#148 = FACE_OUTER_BOUND ( 'NONE', #28, .T. ) ;
#149 = FACE_BOUND ( 'NONE', #45, .T. ) ;
#150 = FACE_BOUND ( 'NONE', #39, .T. ) ;
#151 = FACE_OUTER_BOUND ( 'NONE', #41, .T. ) ;
#152 = FACE_OUTER_BOUND ( 'NONE', #34, .T. ) ;
#153 = FACE_OUTER_BOUND ( 'NONE', #26, .T. ) ;
#154 = LENGTH_MEASURE_WITH_UNIT ( LENGTH_MEASURE( 0.02539999999999999900 ), #96 );
#155 = SHAPE_DEFINITION_REPRESENTATION ( #133, #143 ) ;
#156 =( GEOMETRIC_REPRESENTATION_CONTEXT ( 3 ) GLOBAL_UNCERTAINTY_ASSIGNED_CONTEXT ( ( #1 ) ) GLOBAL_UNIT_ASSIGNED_CONTEXT ( ( #97, #102, #103 ) ) REPRESENTATION_CONTEXT ( 'NONE', 'WORKASPACE' ) );
#157 = PERSON_AND_ORGANIZATION ( #226, #159 ) ;
#158 = PERSON_AND_ORGANIZATION ( #226, #159 ) ;
#159 = ORGANIZATION ( 'UNSPECIFIED', 'UNSPECIFIED', '' ) ;
#160 = LOCAL_TIME ( 9, 40, 11.00000000000000000, #161 ) ;
#161 = COORDINATED_UNIVERSAL_TIME_OFFSET ( 6, 0, .BEHIND. ) ;
#162 = APPROVAL_PERSON_ORGANIZATION ( #157, #257, #77 ) ;
#163 = APPROVAL_DATE_TIME ( #164, #257 ) ;
#164 = DATE_AND_TIME ( #165, #160 ) ;
#165 = CALENDAR_DATE ( 2010, 24, 6 ) ;
#166 = APPROVAL_DATE_TIME ( #216, #262 ) ;
#167 = PERSON_AND_ORGANIZATION ( #226, #159 ) ;
#168 = PERSON_AND_ORGANIZATION ( #226, #159 ) ;
#169 = SECURITY_CLASSIFICATION ( '', '', #90 ) ;
#170 = CALENDAR_DATE ( 2010, 24, 6 ) ;
#171 = DATE_AND_TIME ( #170, #179 ) ;
#172 = PERSON_AND_ORGANIZATION ( #226, #159 ) ;
#173 = APPROVAL_PERSON_ORGANIZATION ( #172, #268, #86 ) ;
#174 = COORDINATED_UNIVERSAL_TIME_OFFSET ( 6, 0, .BEHIND. ) ;
#175 = LOCAL_TIME ( 9, 40, 11.00000000000000000, #174 ) ;
#176 = CALENDAR_DATE ( 2010, 24, 6 ) ;
#177 = DATE_AND_TIME ( #176, #175 ) ;
#178 = APPROVAL_DATE_TIME ( #177, #268 ) ;
#179 = LOCAL_TIME ( 9, 40, 11.00000000000000000, #180 ) ;
#180 = COORDINATED_UNIVERSAL_TIME_OFFSET ( 6, 0, .BEHIND. ) ;
#181 = PERSON_AND_ORGANIZATION ( #226, #159 ) ;
#182 = VECTOR ( 'NONE', #374, 39.37007874015748100 ) ;
#183 = CIRCLE ( 'NONE', #241, 0.1285000000000000900 ) ;
#184 = LINE ( 'NONE', #360, #188 ) ;
#185 = CIRCLE ( 'NONE', #240, 0.1285000000000000000 ) ;
#186 = VECTOR ( 'NONE', #378, 39.37007874015748100 ) ;
#187 = LINE ( 'NONE', #358, #186 ) ;
#188 = VECTOR ( 'NONE', #359, 39.37007874015748100 ) ;
#189 = VECTOR ( 'NONE', #376, 39.37007874015748100 ) ;
#190 = LINE ( 'NONE', #377, #189 ) ;
#191 = CIRCLE ( 'NONE', #242, 0.1285000000000000900 ) ;
#192 = VECTOR ( 'NONE', #333, 39.37007874015748100 ) ;
#193 = CIRCLE ( 'NONE', #244, 0.1285000000000000000 ) ;
#194 = LINE ( 'NONE', #383, #198 ) ;
#195 = CIRCLE ( 'NONE', #243, 0.1285000000000000900 ) ;
#196 = VECTOR ( 'NONE', #334, 39.37007874015748100 ) ;
#197 = LINE ( 'NONE', #335, #196 ) ;
#198 = VECTOR ( 'NONE', #382, 39.37007874015748100 ) ;
#199 = VECTOR ( 'NONE', #352, 39.37007874015748100 ) ;
#200 = LINE ( 'NONE', #336, #199 ) ;
#201 = VECTOR ( 'NONE', #350, 39.37007874015748100 ) ;
#202 = CIRCLE ( 'NONE', #245, 0.1285000000000000000 ) ;
#203 = LINE ( 'NONE', #351, #201 ) ;
#204 = LINE ( 'NONE', #326, #208 ) ;
#205 = VECTOR ( 'NONE', #385, 39.37007874015748100 ) ;
#206 = LINE ( 'NONE', #384, #205 ) ;
#207 = LINE ( 'NONE', #322, #209 ) ;
#208 = VECTOR ( 'NONE', #325, 39.37007874015748100 ) ;
#209 = VECTOR ( 'NONE', #319, 39.37007874015748100 ) ;
#210 = CIRCLE ( 'NONE', #246, 0.1285000000000000900 ) ;
#211 = VECTOR ( 'NONE', #331, 39.37007874015748100 ) ;
#212 = APPROVAL_PERSON_ORGANIZATION ( #224, #262, #104 ) ;
#213 = COORDINATED_UNIVERSAL_TIME_OFFSET ( 6, 0, .BEHIND. ) ;
#214 = CALENDAR_DATE ( 2010, 24, 6 ) ;
#215 = LOCAL_TIME ( 9, 40, 11.00000000000000000, #213 ) ;
#216 = DATE_AND_TIME ( #214, #215 ) ;
#217 = LINE ( 'NONE', #332, #211 ) ;
#218 = LINE ( 'NONE', #375, #182 ) ;
#219 = COORDINATED_UNIVERSAL_TIME_OFFSET ( 6, 0, .BEHIND. ) ;
#220 = LOCAL_TIME ( 9, 40, 11.00000000000000000, #219 ) ;
#221 = DATE_AND_TIME ( #222, #220 ) ;
#222 = CALENDAR_DATE ( 2010, 24, 6 ) ;
#223 = PERSON_AND_ORGANIZATION ( #226, #159 ) ;
#224 = PERSON_AND_ORGANIZATION ( #226, #159 ) ;
#225 = PRODUCT ( 'D020679-v2_aLIGO_SUS_HSTS_Upper Blade Clamp, Lower Side, Shim 1mm', 'D020679-v2_aLIGO_SUS_HSTS_Upper Blade Clamp, Lower Side, Shim 1mm', '', ( #80 ) ) ;
#226 = PERSON ( 'UNSPECIFIED', 'UNSPECIFIED', 'UNSPECIFIED', ('UNSPECIFIED'), ('UNSPECIFIED'), ('UNSPECIFIED') ) ;
#227 = EDGE_CURVE ( 'NONE', #369, #348, #33, .T. ) ;
#228 = EDGE_CURVE ( 'NONE', #317, #368, #31, .T. ) ;
#229 = AXIS2_PLACEMENT_3D ( 'NONE', #301, #302, #303 ) ;
#230 = EDGE_CURVE ( 'NONE', #364, #345, #44, .T. ) ;
#231 = AXIS2_PLACEMENT_3D ( 'NONE', #304, #305, #306 ) ;
#232 = AXIS2_PLACEMENT_3D ( 'NONE', #298, #299, #300 ) ;
#233 = EDGE_CURVE ( 'NONE', #370, #345, #18, .T. ) ;
#234 = EDGE_CURVE ( 'NONE', #315, #318, #217, .T. ) ;
#235 = AXIS2_PLACEMENT_3D ( 'NONE', #307, #308, #309 ) ;
#236 = EDGE_CURVE ( 'NONE', #348, #364, #218, .T. ) ;
#237 = EDGE_CURVE ( 'NONE', #318, #361, #185, .T. ) ;
#238 = EDGE_CURVE ( 'NONE', #317, #363, #183, .T. ) ;
#239 = EDGE_CURVE ( 'NONE', #316, #361, #184, .T. ) ;
#240 = AXIS2_PLACEMENT_3D ( 'NONE', #330, #329, #328 ) ;
#241 = AXIS2_PLACEMENT_3D ( 'NONE', #357, #356, #355 ) ;
#242 = AXIS2_PLACEMENT_3D ( 'NONE', #341, #340, #339 ) ;
#243 = AXIS2_PLACEMENT_3D ( 'NONE', #373, #372, #371 ) ;
#244 = AXIS2_PLACEMENT_3D ( 'NONE', #344, #343, #342 ) ;
#245 = AXIS2_PLACEMENT_3D ( 'NONE', #354, #353, #349 ) ;
#246 = AXIS2_PLACEMENT_3D ( 'NONE', #327, #324, #323 ) ;
#247 = AXIS2_PLACEMENT_3D ( 'NONE', #320, #321, #388 ) ;
#248 = AXIS2_PLACEMENT_3D ( 'NONE', #311, #312, #313 ) ;
#249 = AXIS2_PLACEMENT_3D ( 'NONE', #387, #386, #112 ) ;
#250 = AXIS2_PLACEMENT_3D ( 'NONE', #115, #111, #125 ) ;
#251 = AXIS2_PLACEMENT_3D ( 'NONE', #130, #128, #117 ) ;
#252 = AXIS2_PLACEMENT_3D ( 'NONE', #121, #118, #109 ) ;
#253 = AXIS2_PLACEMENT_3D ( 'NONE', #127, #120, #123 ) ;
#254 = AXIS2_PLACEMENT_3D ( 'NONE', #106, #82, #83 ) ;
#255 = CC_DESIGN_PERSON_AND_ORGANIZATION_ASSIGNMENT ( #158, #75, ( #225 ) ) ;
#256 = PRODUCT_DEFINITION ( 'UNKNOWN', '', #261, #132 ) ;
#257 = APPROVAL ( #92, 'UNSPECIFIED' ) ;
#258 = CC_DESIGN_APPROVAL ( #257, ( #256 ) ) ;
#259 = CC_DESIGN_PERSON_AND_ORGANIZATION_ASSIGNMENT ( #223, #78, ( #256 ) ) ;
#260 = CC_DESIGN_DATE_AND_TIME_ASSIGNMENT ( #221, #107, ( #256 ) ) ;
#261 = PRODUCT_DEFINITION_FORMATION_WITH_SPECIFIED_SOURCE ( 'ANY', '', #225, .NOT_KNOWN. ) ;
#262 = APPROVAL ( #108, 'UNSPECIFIED' ) ;
#263 = CC_DESIGN_APPROVAL ( #262, ( #261 ) ) ;
#264 = CC_DESIGN_PERSON_AND_ORGANIZATION_ASSIGNMENT ( #167, #105, ( #261 ) ) ;
#265 = CC_DESIGN_PERSON_AND_ORGANIZATION_ASSIGNMENT ( #168, #89, ( #261 ) ) ;
#266 = CC_DESIGN_PERSON_AND_ORGANIZATION_ASSIGNMENT ( #181, #87, ( #169 ) ) ;
#267 = CC_DESIGN_DATE_AND_TIME_ASSIGNMENT ( #171, #88, ( #169 ) ) ;
#268 = APPROVAL ( #85, 'UNSPECIFIED' ) ;
#269 = CC_DESIGN_APPROVAL ( #268, ( #169 ) ) ;
#270 = CC_DESIGN_SECURITY_CLASSIFICATION ( #169, ( #261 ) ) ;
#271 = PRODUCT_RELATED_PRODUCT_CATEGORY ( 'detail', '', ( #225 ) ) ;
#272 = EDGE_CURVE ( 'NONE', #348, #370, #187, .T. ) ;
#273 = EDGE_CURVE ( 'NONE', #369, #367, #190, .T. ) ;
#274 = EDGE_CURVE ( 'NONE', #363, #317, #191, .T. ) ;
#275 = EDGE_CURVE ( 'NONE', #362, #368, #195, .T. ) ;
#276 = EDGE_CURVE ( 'NONE', #315, #316, #193, .T. ) ;
#277 = EDGE_CURVE ( 'NONE', #364, #346, #194, .T. ) ;
#278 = EDGE_CURVE ( 'NONE', #347, #367, #197, .T. ) ;
#279 = EDGE_CURVE ( 'NONE', #363, #362, #200, .T. ) ;
#280 = EDGE_CURVE ( 'NONE', #361, #318, #202, .T. ) ;
#281 = EDGE_CURVE ( 'NONE', #345, #347, #203, .T. ) ;
#282 = EDGE_CURVE ( 'NONE', #367, #370, #206, .T. ) ;
#283 = EDGE_CURVE ( 'NONE', #346, #347, #204, .T. ) ;
#284 = EDGE_CURVE ( 'NONE', #368, #362, #210, .T. ) ;
#285 = EDGE_CURVE ( 'NONE', #346, #369, #207, .T. ) ;
#286 = EDGE_CURVE ( 'NONE', #316, #315, #134, .T. ) ;
#287 = ADVANCED_FACE ( 'NONE', ( #135 ), #138, .F. ) ;
#288 = DIMENSIONAL_EXPONENTS ( 1.000000000000000000, 0.0000000000000000000, 0.0000000000000000000, 0.0000000000000000000, 0.0000000000000000000, 0.0000000000000000000, 0.0000000000000000000 ) ;
#289 = ADVANCED_FACE ( 'NONE', ( #137 ), #136, .F. ) ;
#290 = ADVANCED_FACE ( 'NONE', ( #141 ), #140, .F. ) ;
#291 = ADVANCED_FACE ( 'NONE', ( #139 ), #145, .F. ) ;
#292 = ADVANCED_FACE ( 'NONE', ( #144 ), #310, .T. ) ;
#293 = ADVANCED_FACE ( 'NONE', ( #142 ), #314, .F. ) ;
#294 = ADVANCED_FACE ( 'NONE', ( #148 ), #116, .T. ) ;
#295 = ADVANCED_FACE ( 'NONE', ( #147, #146, #151 ), #131, .T. ) ;
#296 = ADVANCED_FACE ( 'NONE', ( #150, #149, #153 ), #113, .T. ) ;
#297 = ADVANCED_FACE ( 'NONE', ( #152 ), #119, .T. ) ;
#298 = CARTESIAN_POINT ( 'NONE',  ( 0.3934999999999999100, -0.9606299212598427000, -0.3934999999999999600 ) ) ;
#299 = DIRECTION ( 'NONE',  ( -0.0000000000000000000, 1.000000000000000000, -0.0000000000000000000 ) ) ;
#300 = DIRECTION ( 'NONE',  ( 0.0000000000000000000, 0.0000000000000000000, 1.000000000000000000 ) ) ;
#301 = CARTESIAN_POINT ( 'NONE',  ( -0.3935000000000000700, -0.9606299212598427000, -0.3934999999999999100 ) ) ;
#302 = DIRECTION ( 'NONE',  ( -0.0000000000000000000, 1.000000000000000000, -0.0000000000000000000 ) ) ;
#303 = DIRECTION ( 'NONE',  ( 0.0000000000000000000, 0.0000000000000000000, 1.000000000000000000 ) ) ;
#304 = CARTESIAN_POINT ( 'NONE',  ( -0.3935000000000000700, -0.9606299212598427000, -0.3934999999999999100 ) ) ;
#305 = DIRECTION ( 'NONE',  ( -0.0000000000000000000, 1.000000000000000000, -0.0000000000000000000 ) ) ;
#306 = DIRECTION ( 'NONE',  ( 0.0000000000000000000, 0.0000000000000000000, 1.000000000000000000 ) ) ;
#307 = CARTESIAN_POINT ( 'NONE',  ( 0.3934999999999999100, -0.9606299212598427000, -0.3934999999999999600 ) ) ;
#308 = DIRECTION ( 'NONE',  ( -0.0000000000000000000, 1.000000000000000000, -0.0000000000000000000 ) ) ;
#309 = DIRECTION ( 'NONE',  ( 0.0000000000000000000, 0.0000000000000000000, 1.000000000000000000 ) ) ;
#310 = PLANE ( 'NONE',  #248 ) ;
#311 = CARTESIAN_POINT ( 'NONE',  ( -0.7850000000000001400, -4.775964779907274300E-017, -0.7869999999999999200 ) ) ;
#312 = DIRECTION ( 'NONE',  ( 0.0000000000000000000, 0.0000000000000000000, -1.000000000000000000 ) ) ;
#313 = DIRECTION ( 'NONE',  ( -1.000000000000000000, 0.0000000000000000000, 0.0000000000000000000 ) ) ;
#314 = PLANE ( 'NONE',  #249 ) ;
#315 = VERTEX_POINT ( 'NONE', #114 ) ;
#316 = VERTEX_POINT ( 'NONE', #129 ) ;
#317 = VERTEX_POINT ( 'NONE', #110 ) ;
#318 = VERTEX_POINT ( 'NONE', #124 ) ;
#319 = DIRECTION ( 'NONE',  ( -0.0000000000000000000, -1.000000000000000000, -0.0000000000000000000 ) ) ;
#320 = CARTESIAN_POINT ( 'NONE',  ( 0.3934999999999999100, 0.0000000000000000000, -0.3934999999999999600 ) ) ;
#321 = DIRECTION ( 'NONE',  ( 1.224606353822377300E-016, -1.000000000000000000, 0.0000000000000000000 ) ) ;
#322 = CARTESIAN_POINT ( 'NONE',  ( -0.7850000000000001400, -9.613159877505663000E-017, -0.7869999999999999200 ) ) ;
#323 = DIRECTION ( 'NONE',  ( 0.0000000000000000000, 0.0000000000000000000, -1.000000000000000000 ) ) ;
#324 = DIRECTION ( 'NONE',  ( -0.0000000000000000000, 1.000000000000000000, 0.0000000000000000000 ) ) ;
#325 = DIRECTION ( 'NONE',  ( 0.0000000000000000000, 0.0000000000000000000, 1.000000000000000000 ) ) ;
#326 = CARTESIAN_POINT ( 'NONE',  ( -0.7850000000000001400, 0.03937007874015728500, -0.7869999999999999200 ) ) ;
#327 = CARTESIAN_POINT ( 'NONE',  ( -0.3935000000000000700, 0.03937007874015728500, -0.3934999999999999100 ) ) ;
#328 = DIRECTION ( 'NONE',  ( 0.0000000000000000000, 0.0000000000000000000, 1.000000000000000000 ) ) ;
#329 = DIRECTION ( 'NONE',  ( 0.0000000000000000000, 1.000000000000000000, 0.0000000000000000000 ) ) ;
#330 = CARTESIAN_POINT ( 'NONE',  ( 0.3934999999999999100, 0.03937007874015728500, -0.3934999999999999600 ) ) ;
#331 = DIRECTION ( 'NONE',  ( -0.0000000000000000000, 1.000000000000000000, -0.0000000000000000000 ) ) ;
#332 = CARTESIAN_POINT ( 'NONE',  ( 0.3934999999999999100, -0.9606299212598427000, -0.5220000000000000200 ) ) ;
#333 = DIRECTION ( 'NONE',  ( -0.0000000000000000000, 1.000000000000000000, -0.0000000000000000000 ) ) ;
#334 = DIRECTION ( 'NONE',  ( -0.0000000000000000000, -1.000000000000000000, -0.0000000000000000000 ) ) ;
#335 = CARTESIAN_POINT ( 'NONE',  ( -0.7850000000000001400, -9.613159877505663000E-017, 0.0000000000000000000 ) ) ;
#336 = CARTESIAN_POINT ( 'NONE',  ( -0.3935000000000000700, -0.9606299212598427000, -0.5220000000000000200 ) ) ;
#337 = DIRECTION ( 'NONE',  ( -0.0000000000000000000, 1.000000000000000000, -0.0000000000000000000 ) ) ;
#338 = CARTESIAN_POINT ( 'NONE',  ( -0.3935000000000000700, -0.9606299212598427000, -0.2649999999999998500 ) ) ;
#339 = DIRECTION ( 'NONE',  ( 1.000000000000000000, 1.224606353822377000E-016, 0.0000000000000000000 ) ) ;
#340 = DIRECTION ( 'NONE',  ( 1.224606353822377300E-016, -1.000000000000000000, 0.0000000000000000000 ) ) ;
#341 = CARTESIAN_POINT ( 'NONE',  ( -0.3935000000000000700, 0.0000000000000000000, -0.3934999999999999100 ) ) ;
#342 = DIRECTION ( 'NONE',  ( 1.000000000000000000, 1.224606353822377300E-016, 0.0000000000000000000 ) ) ;
#343 = DIRECTION ( 'NONE',  ( 1.224606353822377300E-016, -1.000000000000000000, 0.0000000000000000000 ) ) ;
#344 = CARTESIAN_POINT ( 'NONE',  ( 0.3934999999999999100, 0.0000000000000000000, -0.3934999999999999600 ) ) ;
#345 = VERTEX_POINT ( 'NONE', #126 ) ;
#346 = VERTEX_POINT ( 'NONE', #122 ) ;
#347 = VERTEX_POINT ( 'NONE', #74 ) ;
#348 = VERTEX_POINT ( 'NONE', #73 ) ;
#349 = DIRECTION ( 'NONE',  ( 0.0000000000000000000, 0.0000000000000000000, 1.000000000000000000 ) ) ;
#350 = DIRECTION ( 'NONE',  ( -1.000000000000000000, -0.0000000000000000000, -0.0000000000000000000 ) ) ;
#351 = CARTESIAN_POINT ( 'NONE',  ( -0.7850000000000001400, 0.03937007874015728500, 0.0000000000000000000 ) ) ;
#352 = DIRECTION ( 'NONE',  ( -0.0000000000000000000, 1.000000000000000000, -0.0000000000000000000 ) ) ;
#353 = DIRECTION ( 'NONE',  ( 0.0000000000000000000, 1.000000000000000000, 0.0000000000000000000 ) ) ;
#354 = CARTESIAN_POINT ( 'NONE',  ( 0.3934999999999999100, 0.03937007874015728500, -0.3934999999999999600 ) ) ;
#355 = DIRECTION ( 'NONE',  ( 1.000000000000000000, 1.224606353822377000E-016, 0.0000000000000000000 ) ) ;
#356 = DIRECTION ( 'NONE',  ( 1.224606353822377300E-016, -1.000000000000000000, 0.0000000000000000000 ) ) ;
#357 = CARTESIAN_POINT ( 'NONE',  ( -0.3935000000000000700, 0.0000000000000000000, -0.3934999999999999100 ) ) ;
#358 = CARTESIAN_POINT ( 'NONE',  ( 0.7850000000000001400, 4.775964779907273100E-017, -0.7869999999999999200 ) ) ;
#359 = DIRECTION ( 'NONE',  ( -0.0000000000000000000, 1.000000000000000000, -0.0000000000000000000 ) ) ;
#360 = CARTESIAN_POINT ( 'NONE',  ( 0.3934999999999999100, -0.9606299212598427000, -0.2649999999999999600 ) ) ;
#361 = VERTEX_POINT ( 'NONE', #99 ) ;
#362 = VERTEX_POINT ( 'NONE', #100 ) ;
#363 = VERTEX_POINT ( 'NONE', #98 ) ;
#364 = VERTEX_POINT ( 'NONE', #95 ) ;
#365 = DIRECTION ( 'NONE',  ( 1.000000000000000000, 6.084031566760857000E-017, -0.0000000000000000000 ) ) ;
#366 = CARTESIAN_POINT ( 'NONE',  ( 0.7850000000000001400, 4.775964779907273100E-017, -0.7869999999999999200 ) ) ;
#367 = VERTEX_POINT ( 'NONE', #84 ) ;
#368 = VERTEX_POINT ( 'NONE', #101 ) ;
#369 = VERTEX_POINT ( 'NONE', #93 ) ;
#370 = VERTEX_POINT ( 'NONE', #94 ) ;
#371 = DIRECTION ( 'NONE',  ( 0.0000000000000000000, 0.0000000000000000000, -1.000000000000000000 ) ) ;
#372 = DIRECTION ( 'NONE',  ( -0.0000000000000000000, 1.000000000000000000, 0.0000000000000000000 ) ) ;
#373 = CARTESIAN_POINT ( 'NONE',  ( -0.3935000000000000700, 0.03937007874015728500, -0.3934999999999999100 ) ) ;
#374 = DIRECTION ( 'NONE',  ( -0.0000000000000000000, 1.000000000000000000, -0.0000000000000000000 ) ) ;
#375 = CARTESIAN_POINT ( 'NONE',  ( 0.7850000000000001400, 0.03937007874015728500, -0.7869999999999999200 ) ) ;
#376 = DIRECTION ( 'NONE',  ( 0.0000000000000000000, 0.0000000000000000000, 1.000000000000000000 ) ) ;
#377 = CARTESIAN_POINT ( 'NONE',  ( -0.7850000000000001400, -9.613159877505663000E-017, -0.7869999999999999200 ) ) ;
#378 = DIRECTION ( 'NONE',  ( 0.0000000000000000000, 0.0000000000000000000, 1.000000000000000000 ) ) ;
#379 = CARTESIAN_POINT ( 'NONE',  ( 0.7850000000000001400, 0.03937007874015728500, 0.0000000000000000000 ) ) ;
#380 = DIRECTION ( 'NONE',  ( 0.0000000000000000000, 0.0000000000000000000, 1.000000000000000000 ) ) ;
#381 = CARTESIAN_POINT ( 'NONE',  ( 0.7850000000000001400, 0.03937007874015728500, -0.7869999999999999200 ) ) ;
#382 = DIRECTION ( 'NONE',  ( -1.000000000000000000, -0.0000000000000000000, -0.0000000000000000000 ) ) ;
#383 = CARTESIAN_POINT ( 'NONE',  ( -0.7850000000000001400, 0.03937007874015728500, -0.7869999999999999200 ) ) ;
#384 = CARTESIAN_POINT ( 'NONE',  ( 0.0000000000000000000, 0.0000000000000000000, 0.0000000000000000000 ) ) ;
#385 = DIRECTION ( 'NONE',  ( 1.000000000000000000, 1.224606353822377300E-016, -0.0000000000000000000 ) ) ;
#386 = DIRECTION ( 'NONE',  ( 0.0000000000000000000, 0.0000000000000000000, -1.000000000000000000 ) ) ;
#387 = CARTESIAN_POINT ( 'NONE',  ( -0.7850000000000001400, -4.775964779907274300E-017, 0.0000000000000000000 ) ) ;
#388 = DIRECTION ( 'NONE',  ( 1.000000000000000000, 1.224606353822377300E-016, 0.0000000000000000000 ) ) ;
ENDSEC;
END-ISO-10303-21;
