ISO-10303-21;
HEADER;
FILE_DESCRIPTION (( 'STEP AP203' ),
    '1' );
FILE_NAME ('D0902431-v1_aLIGO_SUS_HSTS_Magnet Standoff, Test Mass.STEP',
    '2010-06-16T15:04:37',
    ( 'Dwayne Giardina' ),
    ( 'CA Institute of Technology' ),
    'SwSTEP 2.0',
    'SolidWorks 2009',
    '' );
FILE_SCHEMA (( 'CONFIG_CONTROL_DESIGN' ));
ENDSEC;

DATA;
#1 = CC_DESIGN_PERSON_AND_ORGANIZATION_ASSIGNMENT ( #106, #133, ( #285 ) ) ;
#2 = PRODUCT_DEFINITION ( 'UNKNOWN', '', #54, #120 ) ;
#3 = AXIS2_PLACEMENT_3D ( 'NONE', #262, #256, #190 ) ;
#4 = AXIS2_PLACEMENT_3D ( 'NONE', #254, #198, #263 ) ;
#5 = AXIS2_PLACEMENT_3D ( 'NONE', #261, #258, #236 ) ;
#6 = AXIS2_PLACEMENT_3D ( 'NONE', #144, #192, #255 ) ;
#7 = AXIS2_PLACEMENT_3D ( 'NONE', #208, #188, #176 ) ;
#8 = AXIS2_PLACEMENT_3D ( 'NONE', #180, #169, #237 ) ;
#9 = AXIS2_PLACEMENT_3D ( 'NONE', #177, #135, #242 ) ;
#10 = AXIS2_PLACEMENT_3D ( 'NONE', #197, #196, #195 ) ;
#11 = AXIS2_PLACEMENT_3D ( 'NONE', #149, #164, #259 ) ;
#12 = AXIS2_PLACEMENT_3D ( 'NONE', #184, #191, #162 ) ;
#13 = AXIS2_PLACEMENT_3D ( 'NONE', #170, #173, #238 ) ;
#14 = AXIS2_PLACEMENT_3D ( 'NONE', #266, #274, #279 ) ;
#15 = AXIS2_PLACEMENT_3D ( 'NONE', #278, #264, #235 ) ;
#16 = AXIS2_PLACEMENT_3D ( 'NONE', #267, #269, #275 ) ;
#17 = AXIS2_PLACEMENT_3D ( 'NONE', #271, #277, #276 ) ;
#18 = AXIS2_PLACEMENT_3D ( 'NONE', #336, #337, #338 ) ;
#19 = AXIS2_PLACEMENT_3D ( 'NONE', #273, #280, #265 ) ;
#20 = AXIS2_PLACEMENT_3D ( 'NONE', #333, #330, #331 ) ;
#21 = AXIS2_PLACEMENT_3D ( 'NONE', #332, #334, #335 ) ;
#22 = AXIS2_PLACEMENT_3D ( 'NONE', #327, #328, #329 ) ;
#23 = AXIS2_PLACEMENT_3D ( 'NONE', #310, #311, #312 ) ;
#24 = AXIS2_PLACEMENT_3D ( 'NONE', #320, #321, #322 ) ;
#25 = AXIS2_PLACEMENT_3D ( 'NONE', #317, #318, #319 ) ;
#26 = CC_DESIGN_APPROVAL ( #45, ( #2 ) ) ;
#27 = CC_DESIGN_SECURITY_CLASSIFICATION ( #84, ( #54 ) ) ;
#28 = EDGE_CURVE ( 'NONE', #308, #304, #138, .T. ) ;
#29 = EDGE_CURVE ( 'NONE', #304, #299, #140, .T. ) ;
#30 = EDGE_CURVE ( 'NONE', #306, #303, #127, .T. ) ;
#31 = EDGE_CURVE ( 'NONE', #305, #297, #200, .T. ) ;
#32 = EDGE_CURVE ( 'NONE', #303, #298, #126, .T. ) ;
#33 = EDGE_CURVE ( 'NONE', #301, #298, #220, .T. ) ;
#34 = EDGE_CURVE ( 'NONE', #308, #307, #147, .T. ) ;
#35 = EDGE_CURVE ( 'NONE', #297, #305, #125, .T. ) ;
#36 = EDGE_CURVE ( 'NONE', #298, #303, #130, .T. ) ;
#37 = EDGE_CURVE ( 'NONE', #306, #301, #167, .T. ) ;
#38 = EDGE_CURVE ( 'NONE', #302, #309, #203, .T. ) ;
#39 = EDGE_CURVE ( 'NONE', #305, #309, #206, .T. ) ;
#40 = EDGE_CURVE ( 'NONE', #297, #302, #145, .T. ) ;
#41 = EDGE_CURVE ( 'NONE', #304, #308, #121, .T. ) ;
#42 = EDGE_CURVE ( 'NONE', #309, #302, #201, .T. ) ;
#43 = EDGE_CURVE ( 'NONE', #301, #306, #113, .T. ) ;
#44 = EDGE_CURVE ( 'NONE', #307, #299, #59, .T. ) ;
#45 = APPROVAL ( #228, 'UNSPECIFIED' ) ;
#46 = PRODUCT_RELATED_PRODUCT_CATEGORY ( 'detail', '', ( #285 ) ) ;
#47 = CC_DESIGN_PERSON_AND_ORGANIZATION_ASSIGNMENT ( #85, #249, ( #54 ) ) ;
#48 = CC_DESIGN_APPROVAL ( #55, ( #54 ) ) ;
#49 = APPROVAL ( #247, 'UNSPECIFIED' ) ;
#50 = CC_DESIGN_APPROVAL ( #49, ( #84 ) ) ;
#51 = CC_DESIGN_DATE_AND_TIME_ASSIGNMENT ( #79, #248, ( #84 ) ) ;
#52 = CC_DESIGN_PERSON_AND_ORGANIZATION_ASSIGNMENT ( #83, #245, ( #84 ) ) ;
#53 = CC_DESIGN_PERSON_AND_ORGANIZATION_ASSIGNMENT ( #86, #168, ( #54 ) ) ;
#54 = PRODUCT_DEFINITION_FORMATION_WITH_SPECIFIED_SOURCE ( 'ANY', '', #285, .NOT_KNOWN. ) ;
#55 = APPROVAL ( #172, 'UNSPECIFIED' ) ;
#56 = CC_DESIGN_DATE_AND_TIME_ASSIGNMENT ( #94, #187, ( #2 ) ) ;
#57 = EDGE_CURVE ( 'NONE', #299, #307, #61, .T. ) ;
#58 = CC_DESIGN_PERSON_AND_ORGANIZATION_ASSIGNMENT ( #98, #229, ( #2 ) ) ;
#59 = CIRCLE ( 'NONE', #14, 0.03950000000000034700 ) ;
#60 = FACE_OUTER_BOUND ( 'NONE', #137, .T. ) ;
#61 = CIRCLE ( 'NONE', #15, 0.03950000000000034700 ) ;
#62 = CYLINDRICAL_SURFACE ( 'NONE', #12, 0.03950000000000033300 ) ;
#63 = FACE_OUTER_BOUND ( 'NONE', #132, .T. ) ;
#64 = CYLINDRICAL_SURFACE ( 'NONE', #13, 0.03950000000000034700 ) ;
#65 = FACE_OUTER_BOUND ( 'NONE', #151, .T. ) ;
#66 = FACE_BOUND ( 'NONE', #163, .T. ) ;
#67 = FACE_BOUND ( 'NONE', #146, .T. ) ;
#68 = FACE_OUTER_BOUND ( 'NONE', #142, .T. ) ;
#69 = FACE_OUTER_BOUND ( 'NONE', #153, .T. ) ;
#70 = FACE_OUTER_BOUND ( 'NONE', #128, .T. ) ;
#71 = CYLINDRICAL_SURFACE ( 'NONE', #8, 0.03950000000000033300 ) ;
#72 = APPROVAL_DATE_TIME ( #73, #49 ) ;
#73 = DATE_AND_TIME ( #74, #75 ) ;
#74 = CALENDAR_DATE ( 2010, 16, 6 ) ;
#75 = LOCAL_TIME ( 10, 4, 37.00000000000000000, #76 ) ;
#76 = COORDINATED_UNIVERSAL_TIME_OFFSET ( 6, 0, .BEHIND. ) ;
#77 = APPROVAL_PERSON_ORGANIZATION ( #78, #49, #246 ) ;
#78 = PERSON_AND_ORGANIZATION ( #284, #107 ) ;
#79 = DATE_AND_TIME ( #80, #81 ) ;
#80 = CALENDAR_DATE ( 2010, 16, 6 ) ;
#81 = LOCAL_TIME ( 10, 4, 37.00000000000000000, #82 ) ;
#82 = COORDINATED_UNIVERSAL_TIME_OFFSET ( 6, 0, .BEHIND. ) ;
#83 = PERSON_AND_ORGANIZATION ( #284, #107 ) ;
#84 = SECURITY_CLASSIFICATION ( '', '', #186 ) ;
#85 = PERSON_AND_ORGANIZATION ( #284, #107 ) ;
#86 = PERSON_AND_ORGANIZATION ( #284, #107 ) ;
#87 = APPROVAL_DATE_TIME ( #88, #55 ) ;
#88 = DATE_AND_TIME ( #89, #90 ) ;
#89 = CALENDAR_DATE ( 2010, 16, 6 ) ;
#90 = LOCAL_TIME ( 10, 4, 37.00000000000000000, #91 ) ;
#91 = COORDINATED_UNIVERSAL_TIME_OFFSET ( 6, 0, .BEHIND. ) ;
#92 = APPROVAL_PERSON_ORGANIZATION ( #93, #55, #185 ) ;
#93 = PERSON_AND_ORGANIZATION ( #284, #107 ) ;
#94 = DATE_AND_TIME ( #95, #96 ) ;
#95 = CALENDAR_DATE ( 2010, 16, 6 ) ;
#96 = LOCAL_TIME ( 10, 4, 37.00000000000000000, #97 ) ;
#97 = COORDINATED_UNIVERSAL_TIME_OFFSET ( 6, 0, .BEHIND. ) ;
#98 = PERSON_AND_ORGANIZATION ( #284, #107 ) ;
#99 = APPROVAL_DATE_TIME ( #100, #45 ) ;
#100 = DATE_AND_TIME ( #101, #102 ) ;
#101 = CALENDAR_DATE ( 2010, 16, 6 ) ;
#102 = LOCAL_TIME ( 10, 4, 37.00000000000000000, #103 ) ;
#103 = COORDINATED_UNIVERSAL_TIME_OFFSET ( 6, 0, .BEHIND. ) ;
#104 = APPROVAL_PERSON_ORGANIZATION ( #105, #45, #244 ) ;
#105 = PERSON_AND_ORGANIZATION ( #284, #107 ) ;
#106 = PERSON_AND_ORGANIZATION ( #284, #107 ) ;
#107 = ORGANIZATION ( 'UNSPECIFIED', 'UNSPECIFIED', '' ) ;
#108 = SHAPE_DEFINITION_REPRESENTATION ( #119, #283 ) ;
#109 =( GEOMETRIC_REPRESENTATION_CONTEXT ( 3 ) GLOBAL_UNCERTAINTY_ASSIGNED_CONTEXT ( ( #281 ) ) GLOBAL_UNIT_ASSIGNED_CONTEXT ( ( #226, #230, #239 ) ) REPRESENTATION_CONTEXT ( 'NONE', 'WORKASPACE' ) );
#110 = LENGTH_MEASURE_WITH_UNIT ( LENGTH_MEASURE( 0.02539999999999999900 ), #234 );
#111 = FACE_OUTER_BOUND ( 'NONE', #223, .T. ) ;
#112 = FACE_OUTER_BOUND ( 'NONE', #136, .T. ) ;
#113 = CIRCLE ( 'NONE', #17, 0.03950000000000032700 ) ;
#114 = CYLINDRICAL_SURFACE ( 'NONE', #5, 0.02000000000000000000 ) ;
#115 = CYLINDRICAL_SURFACE ( 'NONE', #7, 0.03950000000000034700 ) ;
#116 = FACE_OUTER_BOUND ( 'NONE', #219, .T. ) ;
#117 = CYLINDRICAL_SURFACE ( 'NONE', #6, 0.02000000000000000000 ) ;
#118 = FACE_OUTER_BOUND ( 'NONE', #218, .T. ) ;
#119 = PRODUCT_DEFINITION_SHAPE ( 'NONE', 'NONE',  #2 ) ;
#120 = DESIGN_CONTEXT ( 'detailed design', #205, 'design' ) ;
#121 = CIRCLE ( 'NONE', #19, 0.03950000000000034700 ) ;
#122 = ORIENTED_EDGE ( 'NONE', *, *, #32, .F. ) ;
#123 = ORIENTED_EDGE ( 'NONE', *, *, #33, .F. ) ;
#124 = VECTOR ( 'NONE', #268, 39.37007874015748100 ) ;
#125 = CIRCLE ( 'NONE', #22, 0.02000000000000000000 ) ;
#126 = CIRCLE ( 'NONE', #24, 0.03950000000000034000 ) ;
#127 = LINE ( 'NONE', #315, #221 ) ;
#128 = EDGE_LOOP ( 'NONE', ( #194, #154 ) ) ;
#129 = ORIENTED_EDGE ( 'NONE', *, *, #29, .T. ) ;
#130 = CIRCLE ( 'NONE', #20, 0.03950000000000034000 ) ;
#131 = ORIENTED_EDGE ( 'NONE', *, *, #38, .F. ) ;
#132 = EDGE_LOOP ( 'NONE', ( #214, #166, #122, #165 ) ) ;
#133 = PERSON_AND_ORGANIZATION_ROLE ( 'design_owner' ) ;
#134 = PLANE ( 'NONE',  #11 ) ;
#135 = DIRECTION ( 'NONE',  ( 3.469446951953620400E-018, -1.196959198424005500E-016, 1.000000000000000000 ) ) ;
#136 = EDGE_LOOP ( 'NONE', ( #171, #222 ) ) ;
#137 = EDGE_LOOP ( 'NONE', ( #123, #182, #143, #160 ) ) ;
#138 = CIRCLE ( 'NONE', #23, 0.03950000000000034700 ) ;
#139 = VECTOR ( 'NONE', #314, 39.37007874015748100 ) ;
#140 = LINE ( 'NONE', #313, #139 ) ;
#141 = ORIENTED_EDGE ( 'NONE', *, *, #36, .T. ) ;
#142 = EDGE_LOOP ( 'NONE', ( #179, #216 ) ) ;
#143 = ORIENTED_EDGE ( 'NONE', *, *, #30, .T. ) ;
#144 = CARTESIAN_POINT ( 'NONE',  ( -1.639108796198557900E-015, -2.731847993664263200E-016, -8.195543980992789700E-016 ) ) ;
#145 = LINE ( 'NONE', #270, #199 ) ;
#146 = EDGE_LOOP ( 'NONE', ( #213, #209 ) ) ;
#147 = LINE ( 'NONE', #325, #174 ) ;
#148 = ORIENTED_EDGE ( 'NONE', *, *, #42, .T. ) ;
#149 = CARTESIAN_POINT ( 'NONE',  ( -1.912293595564984100E-015, 5.463695987328526400E-016, 0.06499999999999917000 ) ) ;
#150 = ORIENTED_EDGE ( 'NONE', *, *, #39, .T. ) ;
#151 = EDGE_LOOP ( 'NONE', ( #207, #152, #175, #215 ) ) ;
#152 = ORIENTED_EDGE ( 'NONE', *, *, #41, .T. ) ;
#153 = EDGE_LOOP ( 'NONE', ( #211, #141 ) ) ;
#154 = ORIENTED_EDGE ( 'NONE', *, *, #43, .F. ) ;
#155 = ORIENTED_EDGE ( 'NONE', *, *, #42, .F. ) ;
#156 = ORIENTED_EDGE ( 'NONE', *, *, #40, .F. ) ;
#157 = ORIENTED_EDGE ( 'NONE', *, *, #39, .F. ) ;
#158 = ORIENTED_EDGE ( 'NONE', *, *, #31, .T. ) ;
#159 = ORIENTED_EDGE ( 'NONE', *, *, #38, .T. ) ;
#160 = ORIENTED_EDGE ( 'NONE', *, *, #36, .F. ) ;
#161 = ORIENTED_EDGE ( 'NONE', *, *, #35, .T. ) ;
#162 = DIRECTION ( 'NONE',  ( 3.885780586188048400E-016, 1.000000000000000000, 1.196959198424000300E-016 ) ) ;
#163 = EDGE_LOOP ( 'NONE', ( #159, #148 ) ) ;
#164 = DIRECTION ( 'NONE',  ( -3.469446951953620400E-018, 1.196959198424005500E-016, -1.000000000000000000 ) ) ;
#165 = ORIENTED_EDGE ( 'NONE', *, *, #30, .F. ) ;
#166 = ORIENTED_EDGE ( 'NONE', *, *, #33, .T. ) ;
#167 = CIRCLE ( 'NONE', #21, 0.03950000000000032700 ) ;
#168 = PERSON_AND_ORGANIZATION_ROLE ( 'creator' ) ;
#169 = DIRECTION ( 'NONE',  ( -3.469446951953618800E-018, 1.249000902703294200E-016, -1.000000000000000000 ) ) ;
#171 = ORIENTED_EDGE ( 'NONE', *, *, #44, .T. ) ;
#170 = CARTESIAN_POINT ( 'NONE',  ( -1.639108796198557900E-015, -2.731847993664263200E-016, -8.195543980992789700E-016 ) ) ;
#172 = APPROVAL_STATUS ( 'not_yet_approved' ) ;
#173 = DIRECTION ( 'NONE',  ( -3.469446951953618800E-018, 1.249000902703294200E-016, -1.000000000000000000 ) ) ;
#174 = VECTOR ( 'NONE', #326, 39.37007874015748100 ) ;
#175 = ORIENTED_EDGE ( 'NONE', *, *, #34, .T. ) ;
#176 = DIRECTION ( 'NONE',  ( 3.885780586188046900E-016, 1.000000000000000000, 1.196959198423999900E-016 ) ) ;
#178 = CLOSED_SHELL ( 'NONE', ( #292, #296, #294, #295, #288, #289, #293, #290, #287, #291 ) ) ;
#177 = CARTESIAN_POINT ( 'NONE',  ( -1.639108796198557900E-015, -5.463695987328526400E-016, 0.1899999999999990600 ) ) ;
#179 = ORIENTED_EDGE ( 'NONE', *, *, #28, .F. ) ;
#180 = CARTESIAN_POINT ( 'NONE',  ( -1.639108796198557900E-015, -2.731847993664263200E-016, -8.195543980992789700E-016 ) ) ;
#181 = ORIENTED_EDGE ( 'NONE', *, *, #28, .T. ) ;
#182 = ORIENTED_EDGE ( 'NONE', *, *, #43, .T. ) ;
#183 = PLANE ( 'NONE',  #10 ) ;
#184 = CARTESIAN_POINT ( 'NONE',  ( -1.639108796198557900E-015, -2.731847993664263200E-016, -8.195543980992789700E-016 ) ) ;
#185 = APPROVAL_ROLE ( '' ) ;
#186 = SECURITY_CLASSIFICATION_LEVEL ( 'unclassified' ) ;
#187 = DATE_TIME_ROLE ( 'creation_date' ) ;
#188 = DIRECTION ( 'NONE',  ( -3.469446951953618800E-018, 1.249000902703294200E-016, -1.000000000000000000 ) ) ;
#189 = CARTESIAN_POINT ( 'NONE',  ( -1.649585580187849100E-015, -0.03950000000000063200, -8.244879516649569900E-016 ) ) ;
#190 = DIRECTION ( 'NONE',  ( 1.000000000000000000, 0.0000000000000000000, 0.0000000000000000000 ) ) ;
#191 = DIRECTION ( 'NONE',  ( -3.469446951953618800E-018, 1.249000902703294200E-016, -1.000000000000000000 ) ) ;
#192 = DIRECTION ( 'NONE',  ( -3.469446951953618800E-018, 1.249000902703294200E-016, -1.000000000000000000 ) ) ;
#193 = VECTOR ( 'NONE', #324, 39.37007874015748100 ) ;
#194 = ORIENTED_EDGE ( 'NONE', *, *, #37, .F. ) ;
#195 = DIRECTION ( 'NONE',  ( -3.885780586188031100E-016, -1.000000000000000000, -1.196959198424005500E-016 ) ) ;
#196 = DIRECTION ( 'NONE',  ( 3.469446951953620400E-018, -1.196959198424005500E-016, 1.000000000000000000 ) ) ;
#197 = CARTESIAN_POINT ( 'NONE',  ( -1.639108796198557900E-015, 0.0000000000000000000, 0.02000000000000060800 ) ) ;
#198 = DIRECTION ( 'NONE',  ( -3.469446951953620400E-018, 1.196959198424005500E-016, -1.000000000000000000 ) ) ;
#199 = VECTOR ( 'NONE', #272, 39.37007874015748100 ) ;
#200 = CIRCLE ( 'NONE', #25, 0.02000000000000000000 ) ;
#201 = CIRCLE ( 'NONE', #16, 0.02000000000000000000 ) ;
#202 = ORIENTED_EDGE ( 'NONE', *, *, #44, .F. ) ;
#203 = CIRCLE ( 'NONE', #18, 0.02000000000000000000 ) ;
#204 = ORIENTED_EDGE ( 'NONE', *, *, #34, .F. ) ;
#205 = APPLICATION_CONTEXT ( 'configuration controlled 3d designs of mechanical parts and assemblies' ) ;
#206 = LINE ( 'NONE', #300, #124 ) ;
#207 = ORIENTED_EDGE ( 'NONE', *, *, #29, .F. ) ;
#208 = CARTESIAN_POINT ( 'NONE',  ( -1.639108796198557900E-015, -2.731847993664263200E-016, -8.195543980992789700E-016 ) ) ;
#209 = ORIENTED_EDGE ( 'NONE', *, *, #31, .F. ) ;
#210 = APPLICATION_PROTOCOL_DEFINITION ( 'international standard', 'config_control_design', 1994, #252 ) ;
#211 = ORIENTED_EDGE ( 'NONE', *, *, #32, .T. ) ;
#212 = CARTESIAN_POINT ( 'NONE',  ( -1.896944762249541300E-015, 0.03950000000000088900, 0.06499999999999918300 ) ) ;
#213 = ORIENTED_EDGE ( 'NONE', *, *, #35, .F. ) ;
#214 = ORIENTED_EDGE ( 'NONE', *, *, #37, .T. ) ;
#215 = ORIENTED_EDGE ( 'NONE', *, *, #57, .F. ) ;
#216 = ORIENTED_EDGE ( 'NONE', *, *, #41, .F. ) ;
#217 = ORIENTED_EDGE ( 'NONE', *, *, #40, .T. ) ;
#218 = EDGE_LOOP ( 'NONE', ( #157, #158, #217, #155 ) ) ;
#219 = EDGE_LOOP ( 'NONE', ( #181, #129, #202, #204 ) ) ;
#220 = LINE ( 'NONE', #323, #193 ) ;
#221 = VECTOR ( 'NONE', #316, 39.37007874015748100 ) ;
#222 = ORIENTED_EDGE ( 'NONE', *, *, #57, .T. ) ;
#223 = EDGE_LOOP ( 'NONE', ( #161, #150, #131, #156 ) ) ;
#224 = MECHANICAL_CONTEXT ( 'NONE', #252, 'mechanical' ) ;
#225 = CARTESIAN_POINT ( 'NONE',  ( -1.631337235026181800E-015, 0.02000000000000000000, 0.02000000000000061100 ) ) ;
#226 =( CONVERSION_BASED_UNIT ( 'INCH', #110 ) LENGTH_UNIT ( ) NAMED_UNIT ( #286 ) );
#227 = CARTESIAN_POINT ( 'NONE',  ( -1.649177920170997100E-015, -0.03949999999999979900, 0.06499999999999915600 ) ) ;
#228 = APPROVAL_STATUS ( 'not_yet_approved' ) ;
#229 = PERSON_AND_ORGANIZATION_ROLE ( 'creator' ) ;
#230 =( NAMED_UNIT ( * ) PLANE_ANGLE_UNIT ( ) SI_UNIT ( $, .RADIAN. ) );
#231 = CARTESIAN_POINT ( 'NONE',  ( -1.644283612277181000E-015, -0.02000000000000000400, 0.02000000000000060100 ) ) ;
#232 = CARTESIAN_POINT ( 'NONE',  ( -1.623759962883115000E-015, 0.03949999999999977800, 0.1899999999999990600 ) ) ;
#233 = CARTESIAN_POINT ( 'NONE',  ( -1.623759962883115000E-015, 0.03950000000000034700, 0.02000000000000061100 ) ) ;
#234 =( LENGTH_UNIT ( ) NAMED_UNIT ( * ) SI_UNIT ( $, .METRE. ) );
#235 = DIRECTION ( 'NONE',  ( 3.885780586188046900E-016, 1.000000000000000000, 1.196959198423999900E-016 ) ) ;
#236 = DIRECTION ( 'NONE',  ( 3.885780586188051800E-016, 1.000000000000000000, 1.196959198424007200E-016 ) ) ;
#237 = DIRECTION ( 'NONE',  ( 3.885780586188048400E-016, 1.000000000000000000, 1.196959198424000300E-016 ) ) ;
#238 = DIRECTION ( 'NONE',  ( 3.885780586188046900E-016, 1.000000000000000000, 1.196959198423999900E-016 ) ) ;
#239 =( NAMED_UNIT ( * ) SI_UNIT ( $, .STERADIAN. ) SOLID_ANGLE_UNIT ( ) );
#240 = CARTESIAN_POINT ( 'NONE',  ( -1.644283612277186300E-015, -0.01999999999999945900, 0.06499999999999917000 ) ) ;
#241 = PLANE ( 'NONE',  #9 ) ;
#242 = DIRECTION ( 'NONE',  ( -3.885780586188031100E-016, -1.000000000000000000, -1.196959198424005500E-016 ) ) ;
#243 = APPLICATION_PROTOCOL_DEFINITION ( 'international standard', 'config_control_design', 1994, #205 ) ;
#244 = APPROVAL_ROLE ( '' ) ;
#245 = PERSON_AND_ORGANIZATION_ROLE ( 'classification_officer' ) ;
#246 = APPROVAL_ROLE ( '' ) ;
#247 = APPROVAL_STATUS ( 'not_yet_approved' ) ;
#248 = DATE_TIME_ROLE ( 'classification_date' ) ;
#249 = PERSON_AND_ORGANIZATION_ROLE ( 'design_supplier' ) ;
#250 = CARTESIAN_POINT ( 'NONE',  ( -1.623759962883115000E-015, 0.03950000000000007700, -8.148264092655041600E-016 ) ) ;
#251 = CARTESIAN_POINT ( 'NONE',  ( -1.649177920170994600E-015, -0.03950000000000087500, 0.1899999999999990600 ) ) ;
#252 = APPLICATION_CONTEXT ( 'configuration controlled 3d designs of mechanical parts and assemblies' ) ;
#253 = PLANE ( 'NONE',  #4 ) ;
#254 = CARTESIAN_POINT ( 'NONE',  ( -1.639108796198557900E-015, -2.731847993664263200E-016, -8.195543980992789700E-016 ) ) ;
#255 = DIRECTION ( 'NONE',  ( 3.885780586188051800E-016, 1.000000000000000000, 1.196959198424007200E-016 ) ) ;
#256 = DIRECTION ( 'NONE',  ( 0.0000000000000000000, 0.0000000000000000000, 1.000000000000000000 ) ) ;
#257 = CARTESIAN_POINT ( 'NONE',  ( -1.649585580187849100E-015, -0.03950000000000035400, 0.02000000000000060100 ) ) ;
#258 = DIRECTION ( 'NONE',  ( -3.469446951953618800E-018, 1.249000902703294200E-016, -1.000000000000000000 ) ) ;
#259 = DIRECTION ( 'NONE',  ( 3.885780586188031100E-016, 1.000000000000000000, 1.196959198424005500E-016 ) ) ;
#260 = CARTESIAN_POINT ( 'NONE',  ( -1.904522034392608300E-015, 0.02000000000000054500, 0.06499999999999917000 ) ) ;
#261 = CARTESIAN_POINT ( 'NONE',  ( -1.639108796198557900E-015, -2.731847993664263200E-016, -8.195543980992789700E-016 ) ) ;
#262 = CARTESIAN_POINT ( 'NONE',  ( 0.0000000000000000000, 0.0000000000000000000, 0.0000000000000000000 ) ) ;
#263 = DIRECTION ( 'NONE',  ( 3.885780586188031100E-016, 1.000000000000000000, 1.196959198424005500E-016 ) ) ;
#264 = DIRECTION ( 'NONE',  ( -3.469446951953618800E-018, 1.249000902703294200E-016, -1.000000000000000000 ) ) ;
#265 = DIRECTION ( 'NONE',  ( 3.885780586188046900E-016, 1.000000000000000000, 1.080636073443132600E-016 ) ) ;
#266 = CARTESIAN_POINT ( 'NONE',  ( -1.639108796198557900E-015, -2.731847993664263200E-016, -8.195543980992789700E-016 ) ) ;
#267 = CARTESIAN_POINT ( 'NONE',  ( -1.639108796198557900E-015, 0.0000000000000000000, 0.02000000000000060800 ) ) ;
#268 = DIRECTION ( 'NONE',  ( -3.469446951953618800E-018, 1.249000902703294200E-016, -1.000000000000000000 ) ) ;
#269 = DIRECTION ( 'NONE',  ( -3.469446951953618800E-018, 1.249000902703294200E-016, -1.000000000000000000 ) ) ;
#270 = CARTESIAN_POINT ( 'NONE',  ( -1.631337235026181800E-015, 0.01999999999999972600, -8.171604797024309800E-016 ) ) ;
#271 = CARTESIAN_POINT ( 'NONE',  ( -1.639108796198557900E-015, -5.463695987328526400E-016, 0.1899999999999990600 ) ) ;
#272 = DIRECTION ( 'NONE',  ( -3.469446951953618800E-018, 1.249000902703294200E-016, -1.000000000000000000 ) ) ;
#273 = CARTESIAN_POINT ( 'NONE',  ( -1.639108796198557900E-015, 0.0000000000000000000, 0.02000000000000060800 ) ) ;
#274 = DIRECTION ( 'NONE',  ( -3.469446951953618800E-018, 1.249000902703294200E-016, -1.000000000000000000 ) ) ;
#275 = DIRECTION ( 'NONE',  ( 3.885780586188051800E-016, 1.000000000000000000, 2.134256245050205700E-016 ) ) ;
#276 = DIRECTION ( 'NONE',  ( 3.885780586188048900E-016, 1.000000000000000000, 0.0000000000000000000 ) ) ;
#277 = DIRECTION ( 'NONE',  ( -3.469446951953618800E-018, 1.249000902703294200E-016, -1.000000000000000000 ) ) ;
#278 = CARTESIAN_POINT ( 'NONE',  ( -1.639108796198557900E-015, -2.731847993664263200E-016, -8.195543980992789700E-016 ) ) ;
#279 = DIRECTION ( 'NONE',  ( 3.885780586188046900E-016, 1.000000000000000000, 1.196959198423999900E-016 ) ) ;
#280 = DIRECTION ( 'NONE',  ( -3.469446951953618800E-018, 1.249000902703294200E-016, -1.000000000000000000 ) ) ;
#281 = UNCERTAINTY_MEASURE_WITH_UNIT (LENGTH_MEASURE( 1.000000000000000100E-005 ), #226, 'distance_accuracy_value', 'NONE');
#282 = MANIFOLD_SOLID_BREP ( 'NONE', #178 ) ;
#283 = ADVANCED_BREP_SHAPE_REPRESENTATION ( 'D0902431-v1_aLIGO_SUS_HSTS_Magnet Standoff, Test Mass', ( #282, #3 ), #109 ) ;
#284 = PERSON ( 'UNSPECIFIED', 'UNSPECIFIED', 'UNSPECIFIED', ('UNSPECIFIED'), ('UNSPECIFIED'), ('UNSPECIFIED') ) ;
#285 = PRODUCT ( 'D0902431-v1_aLIGO_SUS_HSTS_Magnet Standoff, Test Mass', 'D0902431-v1_aLIGO_SUS_HSTS_Magnet Standoff, Test Mass', '', ( #224 ) ) ;
#286 = DIMENSIONAL_EXPONENTS ( 1.000000000000000000, 0.0000000000000000000, 0.0000000000000000000, 0.0000000000000000000, 0.0000000000000000000, 0.0000000000000000000, 0.0000000000000000000 ) ;
#287 = ADVANCED_FACE ( 'NONE', ( #60 ), #62, .T. ) ;
#288 = ADVANCED_FACE ( 'NONE', ( #65 ), #64, .T. ) ;
#289 = ADVANCED_FACE ( 'NONE', ( #66, #68 ), #183, .T. ) ;
#290 = ADVANCED_FACE ( 'NONE', ( #69, #67 ), #134, .T. ) ;
#291 = ADVANCED_FACE ( 'NONE', ( #70 ), #241, .T. ) ;
#292 = ADVANCED_FACE ( 'NONE', ( #63 ), #71, .T. ) ;
#293 = ADVANCED_FACE ( 'NONE', ( #118 ), #117, .T. ) ;
#294 = ADVANCED_FACE ( 'NONE', ( #116 ), #115, .T. ) ;
#295 = ADVANCED_FACE ( 'NONE', ( #112 ), #253, .T. ) ;
#296 = ADVANCED_FACE ( 'NONE', ( #111 ), #114, .T. ) ;
#297 = VERTEX_POINT ( 'NONE', #260 ) ;
#298 = VERTEX_POINT ( 'NONE', #227 ) ;
#299 = VERTEX_POINT ( 'NONE', #189 ) ;
#300 = CARTESIAN_POINT ( 'NONE',  ( -1.644431063772639300E-015, -0.02000000000000027500, -8.219483164961269500E-016 ) ) ;
#301 = VERTEX_POINT ( 'NONE', #251 ) ;
#302 = VERTEX_POINT ( 'NONE', #225 ) ;
#303 = VERTEX_POINT ( 'NONE', #212 ) ;
#304 = VERTEX_POINT ( 'NONE', #257 ) ;
#305 = VERTEX_POINT ( 'NONE', #240 ) ;
#306 = VERTEX_POINT ( 'NONE', #232 ) ;
#307 = VERTEX_POINT ( 'NONE', #250 ) ;
#308 = VERTEX_POINT ( 'NONE', #233 ) ;
#309 = VERTEX_POINT ( 'NONE', #231 ) ;
#310 = CARTESIAN_POINT ( 'NONE',  ( -1.639108796198557900E-015, 0.0000000000000000000, 0.02000000000000060800 ) ) ;
#311 = DIRECTION ( 'NONE',  ( -3.469446951953618800E-018, 1.249000902703294200E-016, -1.000000000000000000 ) ) ;
#312 = DIRECTION ( 'NONE',  ( 3.885780586188046900E-016, 1.000000000000000000, 1.080636073443132600E-016 ) ) ;
#313 = CARTESIAN_POINT ( 'NONE',  ( -1.649620274657368600E-015, -0.03950000000000062500, -8.242823869330537700E-016 ) ) ;
#314 = DIRECTION ( 'NONE',  ( -3.469446951953618800E-018, 1.249000902703294200E-016, -1.000000000000000000 ) ) ;
#315 = CARTESIAN_POINT ( 'NONE',  ( -1.623759962883115000E-015, 0.03950000000000005600, -8.148264092655041600E-016 ) ) ;
#316 = DIRECTION ( 'NONE',  ( -3.469446951953618800E-018, 1.249000902703294200E-016, -1.000000000000000000 ) ) ;
#317 = CARTESIAN_POINT ( 'NONE',  ( -1.912293595564984100E-015, 5.463695987328526400E-016, 0.06499999999999917000 ) ) ;
#318 = DIRECTION ( 'NONE',  ( -3.469446951953618800E-018, 1.249000902703294200E-016, -1.000000000000000000 ) ) ;
#319 = DIRECTION ( 'NONE',  ( 3.885780586188051800E-016, 1.000000000000000000, 0.0000000000000000000 ) ) ;
#320 = CARTESIAN_POINT ( 'NONE',  ( -1.912293595564984100E-015, 5.463695987328526400E-016, 0.06499999999999917000 ) ) ;
#321 = DIRECTION ( 'NONE',  ( -3.469446951953618800E-018, 1.249000902703294200E-016, -1.000000000000000000 ) ) ;
#322 = DIRECTION ( 'NONE',  ( 3.885780586188047400E-016, 1.000000000000000000, 2.161272146886265500E-016 ) ) ;
#323 = CARTESIAN_POINT ( 'NONE',  ( -1.649620274657368600E-015, -0.03950000000000060400, -8.242823869330537700E-016 ) ) ;
#324 = DIRECTION ( 'NONE',  ( -3.469446951953618800E-018, 1.249000902703294200E-016, -1.000000000000000000 ) ) ;
#325 = CARTESIAN_POINT ( 'NONE',  ( -1.623759962883115000E-015, 0.03950000000000007700, -8.148264092655041600E-016 ) ) ;
#326 = DIRECTION ( 'NONE',  ( -3.469446951953618800E-018, 1.249000902703294200E-016, -1.000000000000000000 ) ) ;
#327 = CARTESIAN_POINT ( 'NONE',  ( -1.912293595564984100E-015, 5.463695987328526400E-016, 0.06499999999999917000 ) ) ;
#328 = DIRECTION ( 'NONE',  ( -3.469446951953618800E-018, 1.249000902703294200E-016, -1.000000000000000000 ) ) ;
#329 = DIRECTION ( 'NONE',  ( 3.885780586188051800E-016, 1.000000000000000000, 0.0000000000000000000 ) ) ;
#330 = DIRECTION ( 'NONE',  ( -3.469446951953618800E-018, 1.249000902703294200E-016, -1.000000000000000000 ) ) ;
#331 = DIRECTION ( 'NONE',  ( 3.885780586188047400E-016, 1.000000000000000000, 2.161272146886265500E-016 ) ) ;
#332 = CARTESIAN_POINT ( 'NONE',  ( -1.639108796198557900E-015, -5.463695987328526400E-016, 0.1899999999999990600 ) ) ;
#333 = CARTESIAN_POINT ( 'NONE',  ( -1.912293595564984100E-015, 5.463695987328526400E-016, 0.06499999999999917000 ) ) ;
#334 = DIRECTION ( 'NONE',  ( -3.469446951953618800E-018, 1.249000902703294200E-016, -1.000000000000000000 ) ) ;
#335 = DIRECTION ( 'NONE',  ( 3.885780586188048900E-016, 1.000000000000000000, 0.0000000000000000000 ) ) ;
#336 = CARTESIAN_POINT ( 'NONE',  ( -1.639108796198557900E-015, 0.0000000000000000000, 0.02000000000000060800 ) ) ;
#337 = DIRECTION ( 'NONE',  ( -3.469446951953618800E-018, 1.249000902703294200E-016, -1.000000000000000000 ) ) ;
#338 = DIRECTION ( 'NONE',  ( 3.885780586188051800E-016, 1.000000000000000000, 2.134256245050205700E-016 ) ) ;
ENDSEC;
END-ISO-10303-21;
