ISO-10303-21;
HEADER;
FILE_DESCRIPTION (( 'STEP AP203' ),
    '1' );
FILE_NAME ('D080366-v2_aLIGO_VE_Viewport Guard Shield.STEP',
    '2010-01-22T19:10:44',
    ( ' ' ),
    ( ' ' ),
    'SwSTEP 2.0',
    'SolidWorks 2009',
    '' );
FILE_SCHEMA (( 'CONFIG_CONTROL_DESIGN' ));
ENDSEC;

DATA;
#1 = ORIENTED_EDGE ( 'NONE', *, *, #13, .T. ) ;
#2 = ORIENTED_EDGE ( 'NONE', *, *, #51, .T. ) ;
#3 = EDGE_CURVE ( 'NONE', #75, #57, #155, .T. ) ;
#4 = EDGE_LOOP ( 'NONE', ( #2, #55, #58, #38 ) ) ;
#5 = ORIENTED_EDGE ( 'NONE', *, *, #59, .F. ) ;
#6 = ORIENTED_EDGE ( 'NONE', *, *, #56, .T. ) ;
#7 = EDGE_LOOP ( 'NONE', ( #45, #33, #63, #41 ) ) ;
#8 = ORIENTED_EDGE ( 'NONE', *, *, #65, .F. ) ;
#9 = ORIENTED_EDGE ( 'NONE', *, *, #13, .F. ) ;
#10 = EDGE_CURVE ( 'NONE', #74, #54, #143, .T. ) ;
#11 = EDGE_CURVE ( 'NONE', #12, #60, #117, .T. ) ;
#12 = VERTEX_POINT ( 'NONE', #94 ) ;
#13 = EDGE_CURVE ( 'NONE', #75, #12, #87, .T. ) ;
#14 = EDGE_LOOP ( 'NONE', ( #19, #5, #18, #1 ) ) ;
#15 = EDGE_LOOP ( 'NONE', ( #42, #52 ) ) ;
#16 = ORIENTED_EDGE ( 'NONE', *, *, #10, .F. ) ;
#17 = ADVANCED_FACE ( 'NONE', ( #88 ), #199, .F. ) ;
#18 = ORIENTED_EDGE ( 'NONE', *, *, #3, .F. ) ;
#19 = ORIENTED_EDGE ( 'NONE', *, *, #11, .T. ) ;
#20 = EDGE_CURVE ( 'NONE', #78, #69, #95, .T. ) ;
#21 = ADVANCED_FACE ( 'NONE', ( #128, #195 ), #207, .T. ) ;
#22 = EDGE_LOOP ( 'NONE', ( #23, #8 ) ) ;
#23 = ORIENTED_EDGE ( 'NONE', *, *, #20, .F. ) ;
#24 = EDGE_LOOP ( 'NONE', ( #16, #32, #31, #6 ) ) ;
#25 = ADVANCED_FACE ( 'NONE', ( #209, #208 ), #119, .F. ) ;
#26 = EDGE_CURVE ( 'NONE', #66, #53, #93, .T. ) ;
#27 = ORIENTED_EDGE ( 'NONE', *, *, #39, .F. ) ;
#28 = ORIENTED_EDGE ( 'NONE', *, *, #26, .T. ) ;
#29 = ORIENTED_EDGE ( 'NONE', *, *, #67, .F. ) ;
#30 = EDGE_CURVE ( 'NONE', #81, #80, #167, .T. ) ;
#31 = ORIENTED_EDGE ( 'NONE', *, *, #3, .T. ) ;
#32 = ORIENTED_EDGE ( 'NONE', *, *, #37, .T. ) ;
#33 = ORIENTED_EDGE ( 'NONE', *, *, #51, .F. ) ;
#34 = EDGE_LOOP ( 'NONE', ( #29, #28, #27, #43 ) ) ;
#35 = EDGE_LOOP ( 'NONE', ( #36, #82, #79, #9 ) ) ;
#36 = ORIENTED_EDGE ( 'NONE', *, *, #37, .F. ) ;
#37 = EDGE_CURVE ( 'NONE', #74, #75, #107, .T. ) ;
#38 = ORIENTED_EDGE ( 'NONE', *, *, #39, .T. ) ;
#39 = EDGE_CURVE ( 'NONE', #60, #53, #108, .T. ) ;
#40 = ADVANCED_FACE ( 'NONE', ( #200 ), #175, .F. ) ;
#41 = ORIENTED_EDGE ( 'NONE', *, *, #83, .T. ) ;
#42 = ORIENTED_EDGE ( 'NONE', *, *, #30, .T. ) ;
#43 = ORIENTED_EDGE ( 'NONE', *, *, #11, .F. ) ;
#44 = ADVANCED_FACE ( 'NONE', ( #163 ), #165, .T. ) ;
#45 = ORIENTED_EDGE ( 'NONE', *, *, #10, .T. ) ;
#46 = EDGE_LOOP ( 'NONE', ( #47, #77, #68, #76 ) ) ;
#47 = ORIENTED_EDGE ( 'NONE', *, *, #48, .F. ) ;
#48 = EDGE_CURVE ( 'NONE', #80, #81, #146, .T. ) ;
#49 = MANIFOLD_SOLID_BREP ( 'NONE', #73 ) ;
#50 = ADVANCED_FACE ( 'NONE', ( #179 ), #174, .F. ) ;
#51 = EDGE_CURVE ( 'NONE', #53, #54, #171, .T. ) ;
#52 = ORIENTED_EDGE ( 'NONE', *, *, #48, .T. ) ;
#53 = VERTEX_POINT ( 'NONE', #191 ) ;
#54 = VERTEX_POINT ( 'NONE', #135 ) ;
#55 = ORIENTED_EDGE ( 'NONE', *, *, #56, .F. ) ;
#56 = EDGE_CURVE ( 'NONE', #57, #54, #134, .T. ) ;
#57 = VERTEX_POINT ( 'NONE', #115 ) ;
#58 = ORIENTED_EDGE ( 'NONE', *, *, #59, .T. ) ;
#59 = EDGE_CURVE ( 'NONE', #57, #60, #114, .T. ) ;
#60 = VERTEX_POINT ( 'NONE', #139 ) ;
#61 = ORIENTED_EDGE ( 'NONE', *, *, #84, .F. ) ;
#62 = EDGE_LOOP ( 'NONE', ( #61, #89, #72, #71 ) ) ;
#63 = ORIENTED_EDGE ( 'NONE', *, *, #26, .F. ) ;
#64 = ADVANCED_FACE ( 'NONE', ( #138 ), #137, .F. ) ;
#65 = EDGE_CURVE ( 'NONE', #69, #78, #124, .T. ) ;
#66 = VERTEX_POINT ( 'NONE', #125 ) ;
#67 = EDGE_CURVE ( 'NONE', #66, #12, #190, .T. ) ;
#68 = ORIENTED_EDGE ( 'NONE', *, *, #65, .T. ) ;
#69 = VERTEX_POINT ( 'NONE', #186 ) ;
#70 = ADVANCED_FACE ( 'NONE', ( #153 ), #152, .F. ) ;
#71 = ORIENTED_EDGE ( 'NONE', *, *, #20, .T. ) ;
#72 = ORIENTED_EDGE ( 'NONE', *, *, #85, .T. ) ;
#73 = CLOSED_SHELL ( 'NONE', ( #50, #70, #40, #17, #21, #25, #44, #64 ) ) ;
#74 = VERTEX_POINT ( 'NONE', #247 ) ;
#75 = VERTEX_POINT ( 'NONE', #231 ) ;
#76 = ORIENTED_EDGE ( 'NONE', *, *, #85, .F. ) ;
#77 = ORIENTED_EDGE ( 'NONE', *, *, #84, .T. ) ;
#78 = VERTEX_POINT ( 'NONE', #241 ) ;
#79 = ORIENTED_EDGE ( 'NONE', *, *, #67, .T. ) ;
#80 = VERTEX_POINT ( 'NONE', #225 ) ;
#81 = VERTEX_POINT ( 'NONE', #218 ) ;
#82 = ORIENTED_EDGE ( 'NONE', *, *, #83, .F. ) ;
#83 = EDGE_CURVE ( 'NONE', #66, #74, #213, .T. ) ;
#84 = EDGE_CURVE ( 'NONE', #80, #69, #232, .T. ) ;
#85 = EDGE_CURVE ( 'NONE', #81, #78, #217, .T. ) ;
#86 = CARTESIAN_POINT ( 'NONE',  ( 0.1875000000000000300, 6.375000000000001800, -4.709374999999999600 ) ) ;
#87 = LINE ( 'NONE', #86, #198 ) ;
#88 = FACE_OUTER_BOUND ( 'NONE', #14, .T. ) ;
#89 = ORIENTED_EDGE ( 'NONE', *, *, #30, .F. ) ;
#90 = DIRECTION ( 'NONE',  ( -1.000000000000000000, -0.0000000000000000000, -0.0000000000000000000 ) ) ;
#91 = CARTESIAN_POINT ( 'NONE',  ( -0.1875000000000000300, 0.0000000000000000000, 0.0000000000000000000 ) ) ;
#92 = AXIS2_PLACEMENT_3D ( 'NONE', #91, #90, #126 ) ;
#93 = CIRCLE ( 'NONE', #92, 4.709374999999999600 ) ;
#94 = CARTESIAN_POINT ( 'NONE',  ( -0.1875000000000000300, 6.375000000000001800, -4.709374999999999600 ) ) ;
#95 = CIRCLE ( 'NONE', #98, 0.1406250000000002500 ) ;
#96 = CARTESIAN_POINT ( 'NONE',  ( 0.1875000000000000300, 6.375000000000000900, 4.709374999999999600 ) ) ;
#97 = DIRECTION ( 'NONE',  ( 1.000000000000000000, 0.0000000000000000000, 0.0000000000000000000 ) ) ;
#98 = AXIS2_PLACEMENT_3D ( 'NONE', #127, #97, #196 ) ;
#99 = DIRECTION ( 'NONE',  ( 0.0000000000000000000, -1.000000000000000000, -4.370956789862821300E-017 ) ) ;
#100 = DIRECTION ( 'NONE',  ( 0.0000000000000000000, -4.370956789862821300E-017, 1.000000000000000000 ) ) ;
#101 = CARTESIAN_POINT ( 'NONE',  ( 0.1875000000000000300, 6.375000000000001800, -4.709374999999999600 ) ) ;
#102 = AXIS2_PLACEMENT_3D ( 'NONE', #101, #100, #99 ) ;
#103 = CARTESIAN_POINT ( 'NONE',  ( -0.1875000000000000300, 6.375000000000000900, 4.709374999999999600 ) ) ;
#104 = DIRECTION ( 'NONE',  ( -1.000000000000000000, -0.0000000000000000000, -0.0000000000000000000 ) ) ;
#105 = CARTESIAN_POINT ( 'NONE',  ( 0.1875000000000000300, 6.375000000000000900, 4.709374999999999600 ) ) ;
#106 = AXIS2_PLACEMENT_3D ( 'NONE', #105, #112, #111 ) ;
#107 = LINE ( 'NONE', #168, #185 ) ;
#108 = LINE ( 'NONE', #144, #145 ) ;
#109 = AXIS2_PLACEMENT_3D ( 'NONE', #113, #104, #118 ) ;
#110 = DIRECTION ( 'NONE',  ( -0.0000000000000000000, -1.160174330421452300E-016, 1.000000000000000000 ) ) ;
#111 = DIRECTION ( 'NONE',  ( 0.0000000000000000000, 1.160174330421452300E-016, -1.000000000000000000 ) ) ;
#112 = DIRECTION ( 'NONE',  ( 0.0000000000000000000, -1.000000000000000000, -1.160174330421452300E-016 ) ) ;
#113 = CARTESIAN_POINT ( 'NONE',  ( 0.1875000000000000300, 0.0000000000000000000, 0.0000000000000000000 ) ) ;
#114 = LINE ( 'NONE', #142, #141 ) ;
#115 = CARTESIAN_POINT ( 'NONE',  ( 0.1875000000000000300, 6.375000000000000900, 4.709374999999999600 ) ) ;
#116 = VECTOR ( 'NONE', #132, 39.37007874015748100 ) ;
#117 = LINE ( 'NONE', #103, #206 ) ;
#118 = DIRECTION ( 'NONE',  ( 0.0000000000000000000, 0.0000000000000000000, -1.000000000000000000 ) ) ;
#119 = PLANE ( 'NONE',  #156 ) ;
#120 = DIRECTION ( 'NONE',  ( 0.0000000000000000000, 0.0000000000000000000, -1.000000000000000000 ) ) ;
#121 = DIRECTION ( 'NONE',  ( 1.000000000000000000, 0.0000000000000000000, 0.0000000000000000000 ) ) ;
#122 = CARTESIAN_POINT ( 'NONE',  ( 0.1875000000000000300, 5.750000000000001800, 0.0000000000000000000 ) ) ;
#123 = AXIS2_PLACEMENT_3D ( 'NONE', #122, #121, #120 ) ;
#124 = CIRCLE ( 'NONE', #123, 0.1406250000000002500 ) ;
#125 = CARTESIAN_POINT ( 'NONE',  ( -0.1875000000000000300, 0.0000000000000000000, -4.709374999999999600 ) ) ;
#126 = DIRECTION ( 'NONE',  ( 0.0000000000000000000, 0.0000000000000000000, -1.000000000000000000 ) ) ;
#127 = CARTESIAN_POINT ( 'NONE',  ( 0.1875000000000000300, 5.750000000000001800, 0.0000000000000000000 ) ) ;
#128 = FACE_BOUND ( 'NONE', #22, .T. ) ;
#129 = DIRECTION ( 'NONE',  ( 0.0000000000000000000, 0.0000000000000000000, -1.000000000000000000 ) ) ;
#130 = DIRECTION ( 'NONE',  ( 1.000000000000000000, 0.0000000000000000000, 0.0000000000000000000 ) ) ;
#131 = CARTESIAN_POINT ( 'NONE',  ( -0.1875000000000000300, 6.375000000000000900, 4.709374999999999600 ) ) ;
#132 = DIRECTION ( 'NONE',  ( 0.0000000000000000000, -1.000000000000000000, -1.311287036958846400E-016 ) ) ;
#133 = CARTESIAN_POINT ( 'NONE',  ( 0.1875000000000000300, 6.375000000000000900, 4.709374999999999600 ) ) ;
#134 = LINE ( 'NONE', #133, #116 ) ;
#135 = CARTESIAN_POINT ( 'NONE',  ( 0.1875000000000000300, 0.0000000000000000000, 4.709374999999999600 ) ) ;
#136 = AXIS2_PLACEMENT_3D ( 'NONE', #159, #158, #157 ) ;
#137 = CYLINDRICAL_SURFACE ( 'NONE', #136, 0.1406250000000002500 ) ;
#138 = FACE_OUTER_BOUND ( 'NONE', #62, .T. ) ;
#139 = CARTESIAN_POINT ( 'NONE',  ( -0.1875000000000000300, 6.375000000000000900, 4.709374999999999600 ) ) ;
#140 = DIRECTION ( 'NONE',  ( -1.000000000000000000, -0.0000000000000000000, -0.0000000000000000000 ) ) ;
#141 = VECTOR ( 'NONE', #140, 39.37007874015748100 ) ;
#142 = CARTESIAN_POINT ( 'NONE',  ( 0.1875000000000000300, 6.375000000000000900, 4.709374999999999600 ) ) ;
#143 = CIRCLE ( 'NONE', #109, 4.709374999999999600 ) ;
#144 = CARTESIAN_POINT ( 'NONE',  ( -0.1875000000000000300, 6.375000000000000900, 4.709374999999999600 ) ) ;
#145 = VECTOR ( 'NONE', #201, 39.37007874015748100 ) ;
#146 = CIRCLE ( 'NONE', #183, 0.1406250000000002500 ) ;
#147 = DIRECTION ( 'NONE',  ( 0.0000000000000000000, 0.0000000000000000000, -1.000000000000000000 ) ) ;
#148 = DIRECTION ( 'NONE',  ( 0.0000000000000000000, 1.000000000000000000, 1.311287036958846400E-016 ) ) ;
#149 = DIRECTION ( 'NONE',  ( 0.0000000000000000000, 1.311287036958846400E-016, -1.000000000000000000 ) ) ;
#150 = CARTESIAN_POINT ( 'NONE',  ( 0.1875000000000000300, 6.375000000000000900, 4.709374999999999600 ) ) ;
#151 = AXIS2_PLACEMENT_3D ( 'NONE', #150, #149, #148 ) ;
#152 = PLANE ( 'NONE',  #151 ) ;
#153 = FACE_OUTER_BOUND ( 'NONE', #4, .T. ) ;
#154 = VECTOR ( 'NONE', #178, 39.37007874015748100 ) ;
#155 = LINE ( 'NONE', #96, #154 ) ;
#156 = AXIS2_PLACEMENT_3D ( 'NONE', #131, #130, #129 ) ;
#157 = DIRECTION ( 'NONE',  ( 0.0000000000000000000, 0.0000000000000000000, -1.000000000000000000 ) ) ;
#158 = DIRECTION ( 'NONE',  ( 1.000000000000000000, -0.0000000000000000000, -0.0000000000000000000 ) ) ;
#159 = CARTESIAN_POINT ( 'NONE',  ( -0.1875000000000000300, 5.750000000000001800, 0.0000000000000000000 ) ) ;
#160 = DIRECTION ( 'NONE',  ( 0.0000000000000000000, 0.0000000000000000000, -1.000000000000000000 ) ) ;
#161 = DIRECTION ( 'NONE',  ( 1.000000000000000000, 0.0000000000000000000, 0.0000000000000000000 ) ) ;
#162 = CARTESIAN_POINT ( 'NONE',  ( 0.1875000000000000300, 6.375000000000000900, 4.709374999999999600 ) ) ;
#163 = FACE_OUTER_BOUND ( 'NONE', #7, .T. ) ;
#164 = CARTESIAN_POINT ( 'NONE',  ( -0.1875000000000000300, 0.0000000000000000000, 0.0000000000000000000 ) ) ;
#165 = CYLINDRICAL_SURFACE ( 'NONE', #177, 4.709374999999999600 ) ;
#166 = AXIS2_PLACEMENT_3D ( 'NONE', #212, #211, #210 ) ;
#167 = CIRCLE ( 'NONE', #166, 0.1406250000000002500 ) ;
#168 = CARTESIAN_POINT ( 'NONE',  ( 0.1875000000000000300, 6.375000000000001800, -4.709374999999999600 ) ) ;
#169 = DIRECTION ( 'NONE',  ( 0.0000000000000000000, 0.0000000000000000000, -1.000000000000000000 ) ) ;
#170 = AXIS2_PLACEMENT_3D ( 'NONE', #173, #172, #169 ) ;
#171 = LINE ( 'NONE', #194, #193 ) ;
#172 = DIRECTION ( 'NONE',  ( 1.000000000000000000, -0.0000000000000000000, -0.0000000000000000000 ) ) ;
#173 = CARTESIAN_POINT ( 'NONE',  ( -0.1875000000000000300, 5.750000000000001800, 0.0000000000000000000 ) ) ;
#174 = CYLINDRICAL_SURFACE ( 'NONE', #170, 0.1406250000000002500 ) ;
#175 = PLANE ( 'NONE',  #102 ) ;
#176 = DIRECTION ( 'NONE',  ( 1.000000000000000000, -0.0000000000000000000, -0.0000000000000000000 ) ) ;
#177 = AXIS2_PLACEMENT_3D ( 'NONE', #164, #176, #147 ) ;
#178 = DIRECTION ( 'NONE',  ( -0.0000000000000000000, -1.160174330421452300E-016, 1.000000000000000000 ) ) ;
#179 = FACE_OUTER_BOUND ( 'NONE', #46, .T. ) ;
#180 = DIRECTION ( 'NONE',  ( 0.0000000000000000000, 0.0000000000000000000, -1.000000000000000000 ) ) ;
#181 = DIRECTION ( 'NONE',  ( 1.000000000000000000, 0.0000000000000000000, 0.0000000000000000000 ) ) ;
#182 = CARTESIAN_POINT ( 'NONE',  ( -0.1875000000000000300, 5.750000000000001800, 0.0000000000000000000 ) ) ;
#183 = AXIS2_PLACEMENT_3D ( 'NONE', #182, #181, #180 ) ;
#184 = DIRECTION ( 'NONE',  ( -0.0000000000000000000, 1.000000000000000000, 4.370956789862821900E-017 ) ) ;
#185 = VECTOR ( 'NONE', #184, 39.37007874015748100 ) ;
#186 = CARTESIAN_POINT ( 'NONE',  ( 0.1875000000000000300, 5.750000000000001800, 0.1406250000000002500 ) ) ;
#187 = DIRECTION ( 'NONE',  ( -0.0000000000000000000, 1.000000000000000000, 4.370956789862821900E-017 ) ) ;
#188 = VECTOR ( 'NONE', #187, 39.37007874015748100 ) ;
#189 = CARTESIAN_POINT ( 'NONE',  ( -0.1875000000000000300, 6.375000000000001800, -4.709374999999999600 ) ) ;
#190 = LINE ( 'NONE', #189, #188 ) ;
#191 = CARTESIAN_POINT ( 'NONE',  ( -0.1875000000000000300, -6.175342389678064900E-016, 4.709374999999997900 ) ) ;
#192 = DIRECTION ( 'NONE',  ( 1.000000000000000000, -0.0000000000000000000, -0.0000000000000000000 ) ) ;
#193 = VECTOR ( 'NONE', #192, 39.37007874015748100 ) ;
#194 = CARTESIAN_POINT ( 'NONE',  ( -0.1875000000000000300, 0.0000000000000000000, 4.709374999999999600 ) ) ;
#195 = FACE_OUTER_BOUND ( 'NONE', #24, .T. ) ;
#196 = DIRECTION ( 'NONE',  ( 0.0000000000000000000, 0.0000000000000000000, -1.000000000000000000 ) ) ;
#197 = DIRECTION ( 'NONE',  ( -1.000000000000000000, -0.0000000000000000000, -0.0000000000000000000 ) ) ;
#198 = VECTOR ( 'NONE', #197, 39.37007874015748100 ) ;
#199 = PLANE ( 'NONE',  #106 ) ;
#200 = FACE_OUTER_BOUND ( 'NONE', #35, .T. ) ;
#201 = DIRECTION ( 'NONE',  ( 0.0000000000000000000, -1.000000000000000000, -1.311287036958846400E-016 ) ) ;
#202 = AXIS2_PLACEMENT_3D ( 'NONE', #162, #161, #160 ) ;
#203 = APPROVAL ( #204, 'UNSPECIFIED' ) ;
#204 = APPROVAL_STATUS ( 'not_yet_approved' ) ;
#205 = PERSON_AND_ORGANIZATION ( #256, #255 ) ;
#206 = VECTOR ( 'NONE', #110, 39.37007874015748100 ) ;
#207 = PLANE ( 'NONE',  #202 ) ;
#208 = FACE_OUTER_BOUND ( 'NONE', #34, .T. ) ;
#209 = FACE_BOUND ( 'NONE', #15, .T. ) ;
#210 = DIRECTION ( 'NONE',  ( 0.0000000000000000000, 0.0000000000000000000, -1.000000000000000000 ) ) ;
#211 = DIRECTION ( 'NONE',  ( 1.000000000000000000, 0.0000000000000000000, 0.0000000000000000000 ) ) ;
#212 = CARTESIAN_POINT ( 'NONE',  ( -0.1875000000000000300, 5.750000000000001800, 0.0000000000000000000 ) ) ;
#213 = LINE ( 'NONE', #240, #235 ) ;
#214 =( GEOMETRIC_REPRESENTATION_CONTEXT ( 3 ) GLOBAL_UNCERTAINTY_ASSIGNED_CONTEXT ( ( #234 ) ) GLOBAL_UNIT_ASSIGNED_CONTEXT ( ( #230, #245, #229 ) ) REPRESENTATION_CONTEXT ( 'NONE', 'WORKASPACE' ) );
#215 = DIRECTION ( 'NONE',  ( 1.000000000000000000, -0.0000000000000000000, -0.0000000000000000000 ) ) ;
#216 = CARTESIAN_POINT ( 'NONE',  ( -0.1875000000000000300, 5.750000000000001800, -0.1406250000000002500 ) ) ;
#217 = LINE ( 'NONE', #216, #242 ) ;
#218 = CARTESIAN_POINT ( 'NONE',  ( -0.1875000000000000300, 5.750000000000001800, -0.1406250000000002500 ) ) ;
#219 = APPROVAL_ROLE ( '' ) ;
#220 = DIRECTION ( 'NONE',  ( 1.000000000000000000, 0.0000000000000000000, 0.0000000000000000000 ) ) ;
#221 = APPROVAL_PERSON_ORGANIZATION ( #205, #203, #219 ) ;
#222 = ADVANCED_BREP_SHAPE_REPRESENTATION ( 'D080366-v2_aLIGO_VE_Viewport Guard Shield', ( #49, #243 ), #214 ) ;
#223 = DIRECTION ( 'NONE',  ( 0.0000000000000000000, 0.0000000000000000000, 1.000000000000000000 ) ) ;
#224 = CARTESIAN_POINT ( 'NONE',  ( 0.0000000000000000000, 0.0000000000000000000, 0.0000000000000000000 ) ) ;
#225 = CARTESIAN_POINT ( 'NONE',  ( -0.1875000000000000300, 5.750000000000001800, 0.1406250000000002500 ) ) ;
#226 =( LENGTH_UNIT ( ) NAMED_UNIT ( * ) SI_UNIT ( $, .METRE. ) );
#227 = DIRECTION ( 'NONE',  ( 1.000000000000000000, -0.0000000000000000000, -0.0000000000000000000 ) ) ;
#228 = DIMENSIONAL_EXPONENTS ( 1.000000000000000000, 0.0000000000000000000, 0.0000000000000000000, 0.0000000000000000000, 0.0000000000000000000, 0.0000000000000000000, 0.0000000000000000000 ) ;
#229 =( NAMED_UNIT ( * ) SI_UNIT ( $, .STERADIAN. ) SOLID_ANGLE_UNIT ( ) );
#230 =( CONVERSION_BASED_UNIT ( 'INCH', #248 ) LENGTH_UNIT ( ) NAMED_UNIT ( #228 ) );
#231 = CARTESIAN_POINT ( 'NONE',  ( 0.1875000000000000300, 6.375000000000001800, -4.709374999999999600 ) ) ;
#232 = LINE ( 'NONE', #233, #246 ) ;
#233 = CARTESIAN_POINT ( 'NONE',  ( -0.1875000000000000300, 5.750000000000001800, 0.1406250000000002500 ) ) ;
#234 = UNCERTAINTY_MEASURE_WITH_UNIT (LENGTH_MEASURE( 1.000000000000000100E-005 ), #230, 'distance_accuracy_value', 'NONE');
#235 = VECTOR ( 'NONE', #215, 39.37007874015748100 ) ;
#236 = DATE_AND_TIME ( #237, #238 ) ;
#237 = CALENDAR_DATE ( 2010, 22, 1 ) ;
#238 = LOCAL_TIME ( 13, 10, 44.00000000000000000, #239 ) ;
#239 = COORDINATED_UNIVERSAL_TIME_OFFSET ( 6, 0, .BEHIND. ) ;
#240 = CARTESIAN_POINT ( 'NONE',  ( -0.1875000000000000300, 0.0000000000000000000, -4.709374999999999600 ) ) ;
#241 = CARTESIAN_POINT ( 'NONE',  ( 0.1875000000000000300, 5.750000000000001800, -0.1406250000000002500 ) ) ;
#242 = VECTOR ( 'NONE', #244, 39.37007874015748100 ) ;
#243 = AXIS2_PLACEMENT_3D ( 'NONE', #224, #223, #220 ) ;
#244 = DIRECTION ( 'NONE',  ( 1.000000000000000000, -0.0000000000000000000, -0.0000000000000000000 ) ) ;
#245 =( NAMED_UNIT ( * ) PLANE_ANGLE_UNIT ( ) SI_UNIT ( $, .RADIAN. ) );
#246 = VECTOR ( 'NONE', #227, 39.37007874015748100 ) ;
#247 = CARTESIAN_POINT ( 'NONE',  ( 0.1875000000000000300, 0.0000000000000000000, -4.709374999999999600 ) ) ;
#248 = LENGTH_MEASURE_WITH_UNIT ( LENGTH_MEASURE( 0.02539999999999999900 ), #226 );
#249 = APPLICATION_CONTEXT ( 'configuration controlled 3d designs of mechanical parts and assemblies' ) ;
#250 = PERSON_AND_ORGANIZATION ( #256, #255 ) ;
#251 = PRODUCT_DEFINITION ( 'UNKNOWN', '', #283, #252 ) ;
#252 = DESIGN_CONTEXT ( 'detailed design', #254, 'design' ) ;
#253 = APPLICATION_PROTOCOL_DEFINITION ( 'international standard', 'config_control_design', 1994, #254 ) ;
#254 = APPLICATION_CONTEXT ( 'configuration controlled 3d designs of mechanical parts and assemblies' ) ;
#255 = ORGANIZATION ( 'UNSPECIFIED', 'UNSPECIFIED', '' ) ;
#256 = PERSON ( 'UNSPECIFIED', 'UNSPECIFIED', 'UNSPECIFIED', ('UNSPECIFIED'), ('UNSPECIFIED'), ('UNSPECIFIED') ) ;
#257 = PRODUCT ( 'D080366-v2_aLIGO_VE_Viewport Guard Shield', 'D080366-v2_aLIGO_VE_Viewport Guard Shield', '', ( #260 ) ) ;
#258 = CC_DESIGN_PERSON_AND_ORGANIZATION_ASSIGNMENT ( #250, #259, ( #257 ) ) ;
#259 = PERSON_AND_ORGANIZATION_ROLE ( 'design_owner' ) ;
#260 = MECHANICAL_CONTEXT ( 'NONE', #249, 'mechanical' ) ;
#261 = APPLICATION_PROTOCOL_DEFINITION ( 'international standard', 'config_control_design', 1994, #249 ) ;
#262 = COORDINATED_UNIVERSAL_TIME_OFFSET ( 6, 0, .BEHIND. ) ;
#263 = APPROVAL_PERSON_ORGANIZATION ( #282, #267, #266 ) ;
#264 = COORDINATED_UNIVERSAL_TIME_OFFSET ( 6, 0, .BEHIND. ) ;
#265 = CC_DESIGN_PERSON_AND_ORGANIZATION_ASSIGNMENT ( #273, #272, ( #251 ) ) ;
#266 = APPROVAL_ROLE ( '' ) ;
#267 = APPROVAL ( #276, 'UNSPECIFIED' ) ;
#268 = DATE_TIME_ROLE ( 'creation_date' ) ;
#269 = DATE_AND_TIME ( #284, #278 ) ;
#270 = APPROVAL_DATE_TIME ( #236, #203 ) ;
#271 = CC_DESIGN_APPROVAL ( #203, ( #251 ) ) ;
#272 = PERSON_AND_ORGANIZATION_ROLE ( 'creator' ) ;
#273 = PERSON_AND_ORGANIZATION ( #256, #255 ) ;
#274 = CALENDAR_DATE ( 2010, 22, 1 ) ;
#275 = LOCAL_TIME ( 13, 10, 44.00000000000000000, #262 ) ;
#276 = APPROVAL_STATUS ( 'not_yet_approved' ) ;
#277 = PERSON_AND_ORGANIZATION ( #256, #255 ) ;
#278 = LOCAL_TIME ( 13, 10, 44.00000000000000000, #264 ) ;
#279 = CC_DESIGN_APPROVAL ( #267, ( #283 ) ) ;
#280 = APPROVAL_DATE_TIME ( #281, #267 ) ;
#281 = DATE_AND_TIME ( #274, #275 ) ;
#282 = PERSON_AND_ORGANIZATION ( #256, #255 ) ;
#283 = PRODUCT_DEFINITION_FORMATION_WITH_SPECIFIED_SOURCE ( 'ANY', '', #257, .NOT_KNOWN. ) ;
#284 = CALENDAR_DATE ( 2010, 22, 1 ) ;
#285 = CC_DESIGN_PERSON_AND_ORGANIZATION_ASSIGNMENT ( #287, #286, ( #283 ) ) ;
#286 = PERSON_AND_ORGANIZATION_ROLE ( 'creator' ) ;
#287 = PERSON_AND_ORGANIZATION ( #256, #255 ) ;
#288 = CC_DESIGN_DATE_AND_TIME_ASSIGNMENT ( #269, #268, ( #251 ) ) ;
#289 = COORDINATED_UNIVERSAL_TIME_OFFSET ( 6, 0, .BEHIND. ) ;
#290 = APPROVAL_PERSON_ORGANIZATION ( #309, #306, #305 ) ;
#291 = SECURITY_CLASSIFICATION_LEVEL ( 'unclassified' ) ;
#292 = PERSON_AND_ORGANIZATION_ROLE ( 'classification_officer' ) ;
#293 = CALENDAR_DATE ( 2010, 22, 1 ) ;
#294 = APPROVAL_STATUS ( 'not_yet_approved' ) ;
#295 = CC_DESIGN_APPROVAL ( #306, ( #313 ) ) ;
#296 = APPROVAL_DATE_TIME ( #297, #306 ) ;
#297 = DATE_AND_TIME ( #298, #299 ) ;
#298 = CALENDAR_DATE ( 2010, 22, 1 ) ;
#299 = LOCAL_TIME ( 13, 10, 44.00000000000000000, #289 ) ;
#300 = PERSON_AND_ORGANIZATION ( #256, #255 ) ;
#301 = CC_DESIGN_PERSON_AND_ORGANIZATION_ASSIGNMENT ( #277, #312, ( #283 ) ) ;
#302 = CC_DESIGN_SECURITY_CLASSIFICATION ( #313, ( #283 ) ) ;
#303 = DATE_AND_TIME ( #293, #304 ) ;
#304 = LOCAL_TIME ( 13, 10, 44.00000000000000000, #314 ) ;
#305 = APPROVAL_ROLE ( '' ) ;
#306 = APPROVAL ( #294, 'UNSPECIFIED' ) ;
#307 = SHAPE_DEFINITION_REPRESENTATION ( #308, #222 ) ;
#308 = PRODUCT_DEFINITION_SHAPE ( 'NONE', 'NONE',  #251 ) ;
#309 = PERSON_AND_ORGANIZATION ( #256, #255 ) ;
#310 = CC_DESIGN_DATE_AND_TIME_ASSIGNMENT ( #303, #311, ( #313 ) ) ;
#311 = DATE_TIME_ROLE ( 'classification_date' ) ;
#312 = PERSON_AND_ORGANIZATION_ROLE ( 'design_supplier' ) ;
#313 = SECURITY_CLASSIFICATION ( '', '', #291 ) ;
#314 = COORDINATED_UNIVERSAL_TIME_OFFSET ( 6, 0, .BEHIND. ) ;
#315 = CC_DESIGN_PERSON_AND_ORGANIZATION_ASSIGNMENT ( #300, #292, ( #313 ) ) ;
#316 = PRODUCT_RELATED_PRODUCT_CATEGORY ( 'detail', '', ( #257 ) ) ;
ENDSEC;
END-ISO-10303-21;
