ISO-10303-21;
HEADER;
FILE_DESCRIPTION (( 'STEP AP203' ),
    '1' );
FILE_NAME ('D1200235-v1.STEP',
    '2012-02-09T15:18:45',
    ( 'Dwayne Giardina' ),
    ( 'Microsoft' ),
    'SwSTEP 2.0',
    'SolidWorks 2012',
    '' );
FILE_SCHEMA (( 'CONFIG_CONTROL_DESIGN' ));
ENDSEC;

DATA;
#1 = APPROVAL ( #33, 'UNSPECIFIED' ) ;
#2 = PRODUCT_RELATED_PRODUCT_CATEGORY ( 'detail', '', ( #28 ) ) ;
#3 = CC_DESIGN_APPROVAL ( #1, ( #233 ) ) ;
#4 = CC_DESIGN_SECURITY_CLASSIFICATION ( #233, ( #228 ) ) ;
#5 = COORDINATED_UNIVERSAL_TIME_OFFSET ( 6, 0, .BEHIND. ) ;
#6 = CALENDAR_DATE ( 2012, 9, 2 ) ;
#7 = APPROVAL_DATE_TIME ( #9, #1 ) ;
#8 = LOCAL_TIME ( 9, 18, 45.00000000000000000, #5 ) ;
#9 = DATE_AND_TIME ( #6, #8 ) ;
#10 = MANIFOLD_SOLID_BREP ( 'Fillet1', #260 ) ;
#11 = ADVANCED_BREP_SHAPE_REPRESENTATION ( 'D1200235-v1', ( #10, #221 ), #220 ) ;
#12 = UNCERTAINTY_MEASURE_WITH_UNIT (LENGTH_MEASURE( 1.000000000000000100E-005 ), #40, 'distance_accuracy_value', 'NONE');
#13 = PRODUCT_DEFINITION_SHAPE ( 'NONE', 'NONE',  #223 ) ;
#14 = DESIGN_CONTEXT ( 'detailed design', #49, 'design' ) ;
#15 = ADVANCED_FACE ( 'NONE', ( #241 ), #314, .T. ) ;
#16 = ADVANCED_FACE ( 'NONE', ( #311 ), #316, .F. ) ;
#17 = ADVANCED_FACE ( 'NONE', ( #310 ), #313, .F. ) ;
#18 = ADVANCED_FACE ( 'NONE', ( #318 ), #160, .T. ) ;
#19 = ADVANCED_FACE ( 'NONE', ( #312 ), #321, .F. ) ;
#20 = ADVANCED_FACE ( 'NONE', ( #319, #322 ), #151, .F. ) ;
#21 = ADVANCED_FACE ( 'NONE', ( #317 ), #325, .T. ) ;
#22 = ADVANCED_FACE ( 'NONE', ( #323, #326 ), #144, .T. ) ;
#23 = ADVANCED_FACE ( 'NONE', ( #320 ), #324, .F. ) ;
#24 = ADVANCED_FACE ( 'NONE', ( #329 ), #139, .T. ) ;
#25 = ADVANCED_FACE ( 'NONE', ( #327 ), #332, .T. ) ;
#26 = ADVANCED_FACE ( 'NONE', ( #330 ), #334, .T. ) ;
#27 = DIMENSIONAL_EXPONENTS ( 1.000000000000000000, 0.0000000000000000000, 0.0000000000000000000, 0.0000000000000000000, 0.0000000000000000000, 0.0000000000000000000, 0.0000000000000000000 ) ;
#28 = PRODUCT ( 'D1200235-v1', 'D1200235-v1', '', ( #52 ) ) ;
#29 = PERSON ( 'UNSPECIFIED', 'UNSPECIFIED', 'UNSPECIFIED', ('UNSPECIFIED'), ('UNSPECIFIED'), ('UNSPECIFIED') ) ;
#30 = CARTESIAN_POINT ( 'NONE',  ( 0.0000000000000000000, 0.0000000000000000000, 0.0000000000000000000 ) ) ;
#31 = DIRECTION ( 'NONE',  ( 0.0000000000000000000, 0.0000000000000000000, 1.000000000000000000 ) ) ;
#32 = APPROVAL_ROLE ( '' ) ;
#33 = APPROVAL_STATUS ( 'not_yet_approved' ) ;
#34 = DATE_TIME_ROLE ( 'classification_date' ) ;
#35 = PERSON_AND_ORGANIZATION_ROLE ( 'classification_officer' ) ;
#36 = SECURITY_CLASSIFICATION_LEVEL ( 'unclassified' ) ;
#37 = APPLICATION_PROTOCOL_DEFINITION ( 'international standard', 'config_control_design', 1994, #46 ) ;
#38 = PERSON_AND_ORGANIZATION_ROLE ( 'design_supplier' ) ;
#39 = PERSON_AND_ORGANIZATION_ROLE ( 'creator' ) ;
#40 =( CONVERSION_BASED_UNIT ( 'INCH', #360 ) LENGTH_UNIT ( ) NAMED_UNIT ( #27 ) );
#41 = APPROVAL_ROLE ( '' ) ;
#42 = APPROVAL_STATUS ( 'not_yet_approved' ) ;
#43 = DATE_TIME_ROLE ( 'creation_date' ) ;
#44 = PERSON_AND_ORGANIZATION_ROLE ( 'creator' ) ;
#45 = APPROVAL_ROLE ( '' ) ;
#46 = APPLICATION_CONTEXT ( 'configuration controlled 3d designs of mechanical parts and assemblies' ) ;
#47 = APPROVAL_STATUS ( 'not_yet_approved' ) ;
#48 = APPLICATION_PROTOCOL_DEFINITION ( 'international standard', 'config_control_design', 1994, #49 ) ;
#49 = APPLICATION_CONTEXT ( 'configuration controlled 3d designs of mechanical parts and assemblies' ) ;
#50 = PERSON_AND_ORGANIZATION_ROLE ( 'design_owner' ) ;
#51 =( NAMED_UNIT ( * ) PLANE_ANGLE_UNIT ( ) SI_UNIT ( $, .RADIAN. ) );
#52 = MECHANICAL_CONTEXT ( 'NONE', #46, 'mechanical' ) ;
#53 =( NAMED_UNIT ( * ) SI_UNIT ( $, .STERADIAN. ) SOLID_ANGLE_UNIT ( ) );
#54 = DIRECTION ( 'NONE',  ( 1.000000000000000000, 0.0000000000000000000, 0.0000000000000000000 ) ) ;
#55 =( LENGTH_UNIT ( ) NAMED_UNIT ( * ) SI_UNIT ( $, .METRE. ) );
#56 = CARTESIAN_POINT ( 'NONE',  ( 0.0000000000000000000, 1.187500000000000000, -0.1550000000000000000 ) ) ;
#57 = CARTESIAN_POINT ( 'NONE',  ( 2.663606788145493200E-017, 1.250000000000000000, 0.2175000000000000000 ) ) ;
#58 = CARTESIAN_POINT ( 'NONE',  ( 1.898202538678397300E-017, 0.0000000000000000000, 0.1550000000000000000 ) ) ;
#59 = CARTESIAN_POINT ( 'NONE',  ( 0.0000000000000000000, 2.500000000000000000, -0.2499999999999999200 ) ) ;
#60 = CARTESIAN_POINT ( 'NONE',  ( 4.898587196589413500E-018, 0.0000000000000000000, 0.04000000000000000100 ) ) ;
#61 = CARTESIAN_POINT ( 'NONE',  ( 0.0000000000000000000, 1.250000000000000000, -0.2175000000000000000 ) ) ;
#62 = CARTESIAN_POINT ( 'NONE',  ( 3.061616997868383000E-017, 1.250000000000000000, 0.2500000000000000000 ) ) ;
#63 = CARTESIAN_POINT ( 'NONE',  ( 0.0000000000000000000, 0.02000000000000000000, -0.04000000000000000100 ) ) ;
#64 = CARTESIAN_POINT ( 'NONE',  ( 1.898202538678397300E-017, 1.187500000000000000, 0.1550000000000000000 ) ) ;
#65 = DIRECTION ( 'NONE',  ( 0.0000000000000000000, 0.0000000000000000000, 1.000000000000000000 ) ) ;
#66 = DIRECTION ( 'NONE',  ( -1.000000000000000000, -0.0000000000000000000, -0.0000000000000000000 ) ) ;
#67 = CARTESIAN_POINT ( 'NONE',  ( 0.0000000000000000000, 1.187500000000000000, -0.2175000000000000000 ) ) ;
#68 = CARTESIAN_POINT ( 'NONE',  ( 0.0000000000000000000, 1.250000000000000000, -0.2500000000000000000 ) ) ;
#69 = CARTESIAN_POINT ( 'NONE',  ( 3.061616997868382400E-017, 2.500000000000000000, 0.2499999999999999200 ) ) ;
#70 = DIRECTION ( 'NONE',  ( 0.0000000000000000000, 0.0000000000000000000, -1.000000000000000000 ) ) ;
#71 = DIRECTION ( 'NONE',  ( 0.0000000000000000000, -1.000000000000000000, 0.0000000000000000000 ) ) ;
#72 = CARTESIAN_POINT ( 'NONE',  ( 0.0000000000000000000, 0.0000000000000000000, 0.0000000000000000000 ) ) ;
#73 = CARTESIAN_POINT ( 'NONE',  ( 4.898587196589413500E-018, 0.02000000000000000000, 0.04000000000000000100 ) ) ;
#74 = CARTESIAN_POINT ( 'NONE',  ( 0.0000000000000000000, 0.0000000000000000000, -0.04000000000000000100 ) ) ;
#75 = DIRECTION ( 'NONE',  ( 0.0000000000000000000, 0.0000000000000000000, -1.000000000000000000 ) ) ;
#76 = DIRECTION ( 'NONE',  ( 0.0000000000000000000, -1.000000000000000000, 0.0000000000000000000 ) ) ;
#77 = CARTESIAN_POINT ( 'NONE',  ( 0.0000000000000000000, 1.250000000000000000, 0.0000000000000000000 ) ) ;
#78 = CARTESIAN_POINT ( 'NONE',  ( 0.0000000000000000000, 0.0000000000000000000, -0.1550000000000000000 ) ) ;
#79 = DIRECTION ( 'NONE',  ( 0.0000000000000000000, 0.0000000000000000000, -1.000000000000000000 ) ) ;
#80 = DIRECTION ( 'NONE',  ( 0.0000000000000000000, -1.000000000000000000, 0.0000000000000000000 ) ) ;
#81 = CARTESIAN_POINT ( 'NONE',  ( 0.0000000000000000000, 1.250000000000000000, 0.0000000000000000000 ) ) ;
#82 = DIRECTION ( 'NONE',  ( 0.0000000000000000000, 0.0000000000000000000, -1.000000000000000000 ) ) ;
#83 = DIRECTION ( 'NONE',  ( 0.0000000000000000000, -1.000000000000000000, 0.0000000000000000000 ) ) ;
#84 = CARTESIAN_POINT ( 'NONE',  ( 0.0000000000000000000, 1.187500000000000000, 0.0000000000000000000 ) ) ;
#85 = DIRECTION ( 'NONE',  ( 0.0000000000000000000, 0.0000000000000000000, 1.000000000000000000 ) ) ;
#86 = DIRECTION ( 'NONE',  ( 0.0000000000000000000, 1.000000000000000000, 0.0000000000000000000 ) ) ;
#87 = CARTESIAN_POINT ( 'NONE',  ( 0.0000000000000000000, 2.500000000000000000, 0.0000000000000000000 ) ) ;
#88 = DIRECTION ( 'NONE',  ( -0.0000000000000000000, -1.000000000000000000, -0.0000000000000000000 ) ) ;
#89 = CARTESIAN_POINT ( 'NONE',  ( 0.0000000000000000000, 2.500000000000000000, -0.2499999999999999200 ) ) ;
#90 = DIRECTION ( 'NONE',  ( 0.0000000000000000000, 0.0000000000000000000, -1.000000000000000000 ) ) ;
#91 = DIRECTION ( 'NONE',  ( -0.0000000000000000000, 1.000000000000000000, -0.0000000000000000000 ) ) ;
#92 = CARTESIAN_POINT ( 'NONE',  ( 0.0000000000000000000, 1.250000000000000000, 0.0000000000000000000 ) ) ;
#93 = DIRECTION ( 'NONE',  ( 0.0000000000000000000, 0.0000000000000000000, 1.000000000000000000 ) ) ;
#94 = DIRECTION ( 'NONE',  ( 0.0000000000000000000, 1.000000000000000000, 0.0000000000000000000 ) ) ;
#95 = CARTESIAN_POINT ( 'NONE',  ( 0.0000000000000000000, 2.500000000000000000, 0.0000000000000000000 ) ) ;
#96 = CARTESIAN_POINT ( 'NONE',  ( 3.061616997868382400E-017, 2.500000000000000000, 0.2499999999999999200 ) ) ;
#97 = DIRECTION ( 'NONE',  ( -0.0000000000000000000, -1.000000000000000000, -0.0000000000000000000 ) ) ;
#98 = DIRECTION ( 'NONE',  ( 0.0000000000000000000, 0.0000000000000000000, -1.000000000000000000 ) ) ;
#99 = DIRECTION ( 'NONE',  ( 0.0000000000000000000, -1.000000000000000000, 0.0000000000000000000 ) ) ;
#100 = CARTESIAN_POINT ( 'NONE',  ( 0.0000000000000000000, 0.0000000000000000000, 0.0000000000000000000 ) ) ;
#101 = DIRECTION ( 'NONE',  ( -1.224646799147353000E-016, 0.0000000000000000000, -1.000000000000000000 ) ) ;
#102 = DIRECTION ( 'NONE',  ( 1.000000000000000000, 0.0000000000000000000, -1.224646799147353200E-016 ) ) ;
#103 = CARTESIAN_POINT ( 'NONE',  ( 2.663606788145493200E-017, 1.187500000000000000, 0.2175000000000000000 ) ) ;
#104 = DIRECTION ( 'NONE',  ( -0.0000000000000000000, -1.000000000000000000, -0.0000000000000000000 ) ) ;
#105 = DIRECTION ( 'NONE',  ( 0.0000000000000000000, 0.0000000000000000000, -1.000000000000000000 ) ) ;
#106 = DIRECTION ( 'NONE',  ( 0.0000000000000000000, -1.000000000000000000, 0.0000000000000000000 ) ) ;
#107 = CARTESIAN_POINT ( 'NONE',  ( 0.0000000000000000000, 0.02000000000000000000, 0.0000000000000000000 ) ) ;
#108 = DIRECTION ( 'NONE',  ( 0.0000000000000000000, 0.0000000000000000000, -1.000000000000000000 ) ) ;
#109 = DIRECTION ( 'NONE',  ( 0.0000000000000000000, -1.000000000000000000, 0.0000000000000000000 ) ) ;
#110 = CARTESIAN_POINT ( 'NONE',  ( 0.0000000000000000000, 1.187500000000000000, 0.0000000000000000000 ) ) ;
#111 = CARTESIAN_POINT ( 'NONE',  ( 1.898202538678397300E-017, 1.250000000000000000, 0.1550000000000000000 ) ) ;
#112 = DIRECTION ( 'NONE',  ( -0.0000000000000000000, -1.000000000000000000, -0.0000000000000000000 ) ) ;
#113 = DIRECTION ( 'NONE',  ( 0.0000000000000000000, 0.0000000000000000000, -1.000000000000000000 ) ) ;
#114 = DIRECTION ( 'NONE',  ( 0.0000000000000000000, -1.000000000000000000, 0.0000000000000000000 ) ) ;
#115 = CARTESIAN_POINT ( 'NONE',  ( 0.0000000000000000000, 0.0000000000000000000, 0.0000000000000000000 ) ) ;
#116 = CARTESIAN_POINT ( 'NONE',  ( 0.0000000000000000000, 0.02000000000000000000, -0.04000000000000000100 ) ) ;
#117 = DIRECTION ( 'NONE',  ( 0.0000000000000000000, 0.0000000000000000000, -1.000000000000000000 ) ) ;
#118 = DIRECTION ( 'NONE',  ( 0.0000000000000000000, -1.000000000000000000, 0.0000000000000000000 ) ) ;
#119 = CARTESIAN_POINT ( 'NONE',  ( 0.0000000000000000000, 0.02000000000000000000, 0.0000000000000000000 ) ) ;
#120 = DIRECTION ( 'NONE',  ( -0.0000000000000000000, -1.000000000000000000, -0.0000000000000000000 ) ) ;
#121 = DIRECTION ( 'NONE',  ( 0.0000000000000000000, 0.0000000000000000000, -1.000000000000000000 ) ) ;
#122 = DIRECTION ( 'NONE',  ( 0.0000000000000000000, -1.000000000000000000, 0.0000000000000000000 ) ) ;
#123 = CARTESIAN_POINT ( 'NONE',  ( 0.0000000000000000000, 0.0000000000000000000, 0.0000000000000000000 ) ) ;
#124 = DIRECTION ( 'NONE',  ( 0.0000000000000000000, 0.0000000000000000000, -1.000000000000000000 ) ) ;
#125 = DIRECTION ( 'NONE',  ( -0.0000000000000000000, 1.000000000000000000, -0.0000000000000000000 ) ) ;
#126 = CARTESIAN_POINT ( 'NONE',  ( 0.0000000000000000000, 1.250000000000000000, 0.0000000000000000000 ) ) ;
#127 = DIRECTION ( 'NONE',  ( -0.0000000000000000000, -1.000000000000000000, -0.0000000000000000000 ) ) ;
#128 = CARTESIAN_POINT ( 'NONE',  ( 0.0000000000000000000, 1.250000000000000000, -0.1550000000000000000 ) ) ;
#129 = CARTESIAN_POINT ( 'NONE',  ( 0.0000000000000000000, 2.500000000000000000, 0.0000000000000000000 ) ) ;
#130 = CARTESIAN_POINT ( 'NONE',  ( 4.898587196589413500E-018, 0.02000000000000000000, 0.04000000000000000100 ) ) ;
#131 = DIRECTION ( 'NONE',  ( -0.0000000000000000000, -1.000000000000000000, -0.0000000000000000000 ) ) ;
#132 = CARTESIAN_POINT ( 'NONE',  ( 0.0000000000000000000, 2.500000000000000000, 0.0000000000000000000 ) ) ;
#133 = DIRECTION ( 'NONE',  ( -0.0000000000000000000, -1.000000000000000000, -0.0000000000000000000 ) ) ;
#134 = DIRECTION ( 'NONE',  ( 0.0000000000000000000, -0.0000000000000000000, 1.000000000000000000 ) ) ;
#135 = DIRECTION ( 'NONE',  ( 0.0000000000000000000, 1.000000000000000000, 0.0000000000000000000 ) ) ;
#136 = DIRECTION ( 'NONE',  ( 0.0000000000000000000, 0.0000000000000000000, -1.000000000000000000 ) ) ;
#137 = DIRECTION ( 'NONE',  ( 0.0000000000000000000, 0.0000000000000000000, -1.000000000000000000 ) ) ;
#138 = DIRECTION ( 'NONE',  ( 0.0000000000000000000, 0.0000000000000000000, -1.000000000000000000 ) ) ;
#139 = PLANE ( 'NONE',  #202 ) ;
#140 = CARTESIAN_POINT ( 'NONE',  ( 0.0000000000000000000, 1.187500000000000000, 0.0000000000000000000 ) ) ;
#141 = DIRECTION ( 'NONE',  ( 0.0000000000000000000, -0.0000000000000000000, -1.000000000000000000 ) ) ;
#142 = DIRECTION ( 'NONE',  ( 0.0000000000000000000, -1.000000000000000000, 0.0000000000000000000 ) ) ;
#143 = DIRECTION ( 'NONE',  ( 0.0000000000000000000, -1.000000000000000000, 0.0000000000000000000 ) ) ;
#144 = PLANE ( 'NONE',  #199 ) ;
#145 = CARTESIAN_POINT ( 'NONE',  ( 0.0000000000000000000, 2.500000000000000000, 0.0000000000000000000 ) ) ;
#146 = CARTESIAN_POINT ( 'NONE',  ( 0.0000000000000000000, 1.250000000000000000, 0.0000000000000000000 ) ) ;
#147 = DIRECTION ( 'NONE',  ( -0.0000000000000000000, -1.000000000000000000, -0.0000000000000000000 ) ) ;
#148 = DIRECTION ( 'NONE',  ( 0.0000000000000000000, -0.0000000000000000000, 1.000000000000000000 ) ) ;
#149 = DIRECTION ( 'NONE',  ( 0.0000000000000000000, 1.000000000000000000, 0.0000000000000000000 ) ) ;
#150 = DIRECTION ( 'NONE',  ( 0.0000000000000000000, 0.0000000000000000000, -1.000000000000000000 ) ) ;
#151 = PLANE ( 'NONE',  #198 ) ;
#152 = CARTESIAN_POINT ( 'NONE',  ( 0.0000000000000000000, 1.250000000000000000, 0.0000000000000000000 ) ) ;
#153 = CARTESIAN_POINT ( 'NONE',  ( 0.0000000000000000000, 0.02000000000000000000, 0.0000000000000000000 ) ) ;
#154 = DIRECTION ( 'NONE',  ( -0.0000000000000000000, -1.000000000000000000, -0.0000000000000000000 ) ) ;
#155 = DIRECTION ( 'NONE',  ( 0.0000000000000000000, -0.0000000000000000000, -1.000000000000000000 ) ) ;
#156 = DIRECTION ( 'NONE',  ( 0.0000000000000000000, -1.000000000000000000, 0.0000000000000000000 ) ) ;
#157 = CARTESIAN_POINT ( 'NONE',  ( 0.0000000000000000000, 0.0000000000000000000, 0.0000000000000000000 ) ) ;
#158 = DIRECTION ( 'NONE',  ( 0.0000000000000000000, 0.0000000000000000000, -1.000000000000000000 ) ) ;
#159 = DIRECTION ( 'NONE',  ( 0.0000000000000000000, 0.0000000000000000000, -1.000000000000000000 ) ) ;
#160 = PLANE ( 'NONE',  #170 ) ;
#161 = CARTESIAN_POINT ( 'NONE',  ( 0.0000000000000000000, 0.02000000000000000000, 0.0000000000000000000 ) ) ;
#162 = CARTESIAN_POINT ( 'NONE',  ( 0.0000000000000000000, 1.187500000000000000, 0.0000000000000000000 ) ) ;
#163 = DIRECTION ( 'NONE',  ( -0.0000000000000000000, -1.000000000000000000, -0.0000000000000000000 ) ) ;
#164 = DIRECTION ( 'NONE',  ( 0.0000000000000000000, 0.0000000000000000000, -1.000000000000000000 ) ) ;
#165 = CARTESIAN_POINT ( 'NONE',  ( 0.0000000000000000000, 1.250000000000000000, 0.0000000000000000000 ) ) ;
#166 = CARTESIAN_POINT ( 'NONE',  ( 0.0000000000000000000, 0.02000000000000000000, 0.0000000000000000000 ) ) ;
#167 = DIRECTION ( 'NONE',  ( 0.0000000000000000000, -1.000000000000000000, 0.0000000000000000000 ) ) ;
#168 = DIRECTION ( 'NONE',  ( 0.0000000000000000000, 0.0000000000000000000, -1.000000000000000000 ) ) ;
#169 = DIRECTION ( 'NONE',  ( -0.0000000000000000000, -1.000000000000000000, -0.0000000000000000000 ) ) ;
#170 = AXIS2_PLACEMENT_3D ( 'NONE', #161, #156, #155 ) ;
#171 = EDGE_CURVE ( 'NONE', #295, #283, #315, .T. ) ;
#172 = AXIS2_PLACEMENT_3D ( 'NONE', #166, #169, #168 ) ;
#173 = EDGE_CURVE ( 'NONE', #290, #294, #328, .T. ) ;
#174 = AXIS2_PLACEMENT_3D ( 'NONE', #165, #163, #164 ) ;
#175 = AXIS2_PLACEMENT_3D ( 'NONE', #162, #167, #159 ) ;
#176 = EDGE_CURVE ( 'NONE', #293, #283, #333, .T. ) ;
#177 = EDGE_CURVE ( 'NONE', #286, #285, #335, .T. ) ;
#178 = EDGE_CURVE ( 'NONE', #283, #293, #336, .T. ) ;
#179 = EDGE_CURVE ( 'NONE', #285, #291, #338, .T. ) ;
#180 = EDGE_CURVE ( 'NONE', #286, #287, #337, .T. ) ;
#181 = EDGE_CURVE ( 'NONE', #295, #284, #339, .T. ) ;
#182 = EDGE_CURVE ( 'NONE', #285, #286, #341, .T. ) ;
#183 = EDGE_CURVE ( 'NONE', #284, #294, #344, .T. ) ;
#184 = EDGE_CURVE ( 'NONE', #291, #287, #343, .T. ) ;
#185 = EDGE_CURVE ( 'NONE', #284, #293, #346, .T. ) ;
#186 = EDGE_CURVE ( 'NONE', #282, #292, #347, .T. ) ;
#187 = EDGE_CURVE ( 'NONE', #294, #290, #345, .T. ) ;
#188 = EDGE_CURVE ( 'NONE', #282, #288, #350, .T. ) ;
#189 = EDGE_CURVE ( 'NONE', #292, #282, #349, .T. ) ;
#190 = EDGE_CURVE ( 'NONE', #284, #295, #353, .T. ) ;
#191 = AXIS2_PLACEMENT_3D ( 'NONE', #146, #147, #150 ) ;
#192 = EDGE_CURVE ( 'NONE', #292, #289, #354, .T. ) ;
#193 = EDGE_CURVE ( 'NONE', #289, #288, #351, .T. ) ;
#194 = EDGE_CURVE ( 'NONE', #288, #289, #355, .T. ) ;
#195 = EDGE_CURVE ( 'NONE', #287, #291, #357, .T. ) ;
#196 = EDGE_CURVE ( 'NONE', #295, #290, #358, .T. ) ;
#197 = AXIS2_PLACEMENT_3D ( 'NONE', #153, #154, #158 ) ;
#198 = AXIS2_PLACEMENT_3D ( 'NONE', #157, #149, #148 ) ;
#199 = AXIS2_PLACEMENT_3D ( 'NONE', #152, #142, #141 ) ;
#200 = AXIS2_PLACEMENT_3D ( 'NONE', #140, #143, #138 ) ;
#201 = AXIS2_PLACEMENT_3D ( 'NONE', #126, #125, #124 ) ;
#202 = AXIS2_PLACEMENT_3D ( 'NONE', #145, #135, #134 ) ;
#203 = AXIS2_PLACEMENT_3D ( 'NONE', #123, #122, #121 ) ;
#204 = AXIS2_PLACEMENT_3D ( 'NONE', #132, #133, #137 ) ;
#205 = AXIS2_PLACEMENT_3D ( 'NONE', #129, #131, #136 ) ;
#206 = AXIS2_PLACEMENT_3D ( 'NONE', #119, #118, #117 ) ;
#207 = AXIS2_PLACEMENT_3D ( 'NONE', #115, #114, #113 ) ;
#208 = AXIS2_PLACEMENT_3D ( 'NONE', #110, #109, #108 ) ;
#209 = AXIS2_PLACEMENT_3D ( 'NONE', #107, #106, #105 ) ;
#210 = AXIS2_PLACEMENT_3D ( 'NONE', #103, #102, #101 ) ;
#211 = AXIS2_PLACEMENT_3D ( 'NONE', #100, #99, #98 ) ;
#212 = AXIS2_PLACEMENT_3D ( 'NONE', #95, #94, #93 ) ;
#213 = AXIS2_PLACEMENT_3D ( 'NONE', #92, #91, #90 ) ;
#214 = AXIS2_PLACEMENT_3D ( 'NONE', #87, #86, #85 ) ;
#215 = AXIS2_PLACEMENT_3D ( 'NONE', #84, #83, #82 ) ;
#216 = AXIS2_PLACEMENT_3D ( 'NONE', #81, #80, #79 ) ;
#217 = AXIS2_PLACEMENT_3D ( 'NONE', #77, #76, #75 ) ;
#218 = AXIS2_PLACEMENT_3D ( 'NONE', #72, #71, #70 ) ;
#219 = AXIS2_PLACEMENT_3D ( 'NONE', #67, #66, #65 ) ;
#220 =( GEOMETRIC_REPRESENTATION_CONTEXT ( 3 ) GLOBAL_UNCERTAINTY_ASSIGNED_CONTEXT ( ( #12 ) ) GLOBAL_UNIT_ASSIGNED_CONTEXT ( ( #40, #51, #53 ) ) REPRESENTATION_CONTEXT ( 'NONE', 'WORKASPACE' ) );
#221 = AXIS2_PLACEMENT_3D ( 'NONE', #30, #31, #54 ) ;
#222 = CC_DESIGN_PERSON_AND_ORGANIZATION_ASSIGNMENT ( #362, #50, ( #28 ) ) ;
#223 = PRODUCT_DEFINITION ( 'UNKNOWN', '', #228, #14 ) ;
#224 = APPROVAL ( #47, 'UNSPECIFIED' ) ;
#225 = CC_DESIGN_APPROVAL ( #224, ( #223 ) ) ;
#226 = CC_DESIGN_PERSON_AND_ORGANIZATION_ASSIGNMENT ( #370, #44, ( #223 ) ) ;
#227 = CC_DESIGN_DATE_AND_TIME_ASSIGNMENT ( #374, #43, ( #223 ) ) ;
#228 = PRODUCT_DEFINITION_FORMATION_WITH_SPECIFIED_SOURCE ( 'ANY', '', #28, .NOT_KNOWN. ) ;
#229 = APPROVAL ( #42, 'UNSPECIFIED' ) ;
#230 = CC_DESIGN_APPROVAL ( #229, ( #228 ) ) ;
#231 = CC_DESIGN_PERSON_AND_ORGANIZATION_ASSIGNMENT ( #382, #39, ( #228 ) ) ;
#232 = CC_DESIGN_PERSON_AND_ORGANIZATION_ASSIGNMENT ( #383, #38, ( #228 ) ) ;
#233 = SECURITY_CLASSIFICATION ( '', '', #36 ) ;
#234 = CC_DESIGN_PERSON_AND_ORGANIZATION_ASSIGNMENT ( #384, #35, ( #233 ) ) ;
#235 = CC_DESIGN_DATE_AND_TIME_ASSIGNMENT ( #388, #34, ( #233 ) ) ;
#236 = ORIENTED_EDGE ( 'NONE', *, *, #182, .F. ) ;
#237 = ORIENTED_EDGE ( 'NONE', *, *, #178, .F. ) ;
#238 = ORIENTED_EDGE ( 'NONE', *, *, #180, .F. ) ;
#239 = ORIENTED_EDGE ( 'NONE', *, *, #171, .F. ) ;
#240 = ORIENTED_EDGE ( 'NONE', *, *, #173, .F. ) ;
#241 = FACE_OUTER_BOUND ( 'NONE', #306, .T. ) ;
#242 = ORIENTED_EDGE ( 'NONE', *, *, #190, .F. ) ;
#243 = ORIENTED_EDGE ( 'NONE', *, *, #186, .F. ) ;
#244 = ORIENTED_EDGE ( 'NONE', *, *, #179, .T. ) ;
#245 = ORIENTED_EDGE ( 'NONE', *, *, #185, .T. ) ;
#246 = ORIENTED_EDGE ( 'NONE', *, *, #183, .T. ) ;
#247 = ORIENTED_EDGE ( 'NONE', *, *, #182, .T. ) ;
#248 = ORIENTED_EDGE ( 'NONE', *, *, #189, .F. ) ;
#249 = ORIENTED_EDGE ( 'NONE', *, *, #181, .T. ) ;
#250 = ORIENTED_EDGE ( 'NONE', *, *, #184, .T. ) ;
#251 = ORIENTED_EDGE ( 'NONE', *, *, #196, .F. ) ;
#252 = ORIENTED_EDGE ( 'NONE', *, *, #188, .T. ) ;
#253 = ORIENTED_EDGE ( 'NONE', *, *, #193, .F. ) ;
#254 = ORIENTED_EDGE ( 'NONE', *, *, #177, .F. ) ;
#255 = ORIENTED_EDGE ( 'NONE', *, *, #180, .T. ) ;
#256 = ORIENTED_EDGE ( 'NONE', *, *, #183, .F. ) ;
#257 = ORIENTED_EDGE ( 'NONE', *, *, #181, .F. ) ;
#258 = ORIENTED_EDGE ( 'NONE', *, *, #196, .T. ) ;
#259 = ORIENTED_EDGE ( 'NONE', *, *, #187, .F. ) ;
#260 = CLOSED_SHELL ( 'NONE', ( #23, #16, #15, #26, #25, #24, #22, #21, #20, #19, #18, #17 ) ) ;
#261 = ORIENTED_EDGE ( 'NONE', *, *, #195, .T. ) ;
#262 = ORIENTED_EDGE ( 'NONE', *, *, #177, .T. ) ;
#263 = ORIENTED_EDGE ( 'NONE', *, *, #179, .F. ) ;
#264 = ORIENTED_EDGE ( 'NONE', *, *, #176, .T. ) ;
#265 = ORIENTED_EDGE ( 'NONE', *, *, #178, .T. ) ;
#266 = ORIENTED_EDGE ( 'NONE', *, *, #184, .F. ) ;
#267 = ORIENTED_EDGE ( 'NONE', *, *, #192, .T. ) ;
#268 = ORIENTED_EDGE ( 'NONE', *, *, #194, .F. ) ;
#269 = ORIENTED_EDGE ( 'NONE', *, *, #189, .T. ) ;
#270 = ORIENTED_EDGE ( 'NONE', *, *, #186, .T. ) ;
#271 = ORIENTED_EDGE ( 'NONE', *, *, #173, .T. ) ;
#272 = ORIENTED_EDGE ( 'NONE', *, *, #187, .T. ) ;
#273 = ORIENTED_EDGE ( 'NONE', *, *, #193, .T. ) ;
#274 = ORIENTED_EDGE ( 'NONE', *, *, #185, .F. ) ;
#275 = ORIENTED_EDGE ( 'NONE', *, *, #194, .T. ) ;
#276 = ORIENTED_EDGE ( 'NONE', *, *, #171, .T. ) ;
#277 = ORIENTED_EDGE ( 'NONE', *, *, #190, .T. ) ;
#278 = ORIENTED_EDGE ( 'NONE', *, *, #188, .F. ) ;
#279 = ORIENTED_EDGE ( 'NONE', *, *, #195, .F. ) ;
#280 = ORIENTED_EDGE ( 'NONE', *, *, #192, .F. ) ;
#281 = ORIENTED_EDGE ( 'NONE', *, *, #176, .F. ) ;
#282 = VERTEX_POINT ( 'NONE', #69 ) ;
#283 = VERTEX_POINT ( 'NONE', #78 ) ;
#284 = VERTEX_POINT ( 'NONE', #64 ) ;
#285 = VERTEX_POINT ( 'NONE', #73 ) ;
#286 = VERTEX_POINT ( 'NONE', #63 ) ;
#287 = VERTEX_POINT ( 'NONE', #74 ) ;
#288 = VERTEX_POINT ( 'NONE', #62 ) ;
#289 = VERTEX_POINT ( 'NONE', #68 ) ;
#290 = VERTEX_POINT ( 'NONE', #61 ) ;
#291 = VERTEX_POINT ( 'NONE', #60 ) ;
#292 = VERTEX_POINT ( 'NONE', #59 ) ;
#293 = VERTEX_POINT ( 'NONE', #58 ) ;
#294 = VERTEX_POINT ( 'NONE', #57 ) ;
#295 = VERTEX_POINT ( 'NONE', #56 ) ;
#296 = EDGE_LOOP ( 'NONE', ( #256, #257, #258, #259 ) ) ;
#297 = EDGE_LOOP ( 'NONE', ( #262, #247 ) ) ;
#298 = EDGE_LOOP ( 'NONE', ( #279, #266 ) ) ;
#299 = EDGE_LOOP ( 'NONE', ( #265, #264 ) ) ;
#300 = EDGE_LOOP ( 'NONE', ( #271, #272 ) ) ;
#301 = EDGE_LOOP ( 'NONE', ( #274, #277, #276, #281 ) ) ;
#302 = EDGE_LOOP ( 'NONE', ( #278, #248, #267, #268 ) ) ;
#303 = EDGE_LOOP ( 'NONE', ( #243, #252, #253, #280 ) ) ;
#304 = EDGE_LOOP ( 'NONE', ( #263, #254, #255, #261 ) ) ;
#305 = EDGE_LOOP ( 'NONE', ( #269, #270 ) ) ;
#306 = EDGE_LOOP ( 'NONE', ( #249, #245, #237, #239 ) ) ;
#307 = EDGE_LOOP ( 'NONE', ( #236, #244, #250, #238 ) ) ;
#308 = EDGE_LOOP ( 'NONE', ( #273, #275 ) ) ;
#309 = EDGE_LOOP ( 'NONE', ( #242, #246, #240, #251 ) ) ;
#310 = FACE_OUTER_BOUND ( 'NONE', #296, .T. ) ;
#311 = FACE_OUTER_BOUND ( 'NONE', #307, .T. ) ;
#312 = FACE_OUTER_BOUND ( 'NONE', #304, .T. ) ;
#313 = TOROIDAL_SURFACE ( 'NONE', #175, 0.2175000000000000000, 0.06250000000000000000 ) ;
#314 = CYLINDRICAL_SURFACE ( 'NONE', #174, 0.1550000000000000000 ) ;
#315 = LINE ( 'NONE', #128, #331 ) ;
#316 = CYLINDRICAL_SURFACE ( 'NONE', #172, 0.04000000000000000100 ) ;
#317 = FACE_OUTER_BOUND ( 'NONE', #301, .T. ) ;
#318 = FACE_OUTER_BOUND ( 'NONE', #297, .T. ) ;
#319 = FACE_BOUND ( 'NONE', #298, .T. ) ;
#320 = FACE_OUTER_BOUND ( 'NONE', #309, .T. ) ;
#321 = CYLINDRICAL_SURFACE ( 'NONE', #197, 0.04000000000000000100 ) ;
#322 = FACE_OUTER_BOUND ( 'NONE', #299, .T. ) ;
#323 = FACE_BOUND ( 'NONE', #300, .T. ) ;
#324 = TOROIDAL_SURFACE ( 'NONE', #200, 0.2175000000000000000, 0.06250000000000000000 ) ;
#325 = CYLINDRICAL_SURFACE ( 'NONE', #191, 0.1550000000000000000 ) ;
#326 = FACE_OUTER_BOUND ( 'NONE', #308, .T. ) ;
#327 = FACE_OUTER_BOUND ( 'NONE', #302, .T. ) ;
#328 = CIRCLE ( 'NONE', #201, 0.2175000000000000000 ) ;
#329 = FACE_OUTER_BOUND ( 'NONE', #305, .T. ) ;
#330 = FACE_OUTER_BOUND ( 'NONE', #303, .T. ) ;
#331 = VECTOR ( 'NONE', #127, 39.37007874015748100 ) ;
#332 = CYLINDRICAL_SURFACE ( 'NONE', #204, 0.2499999999999999200 ) ;
#333 = CIRCLE ( 'NONE', #203, 0.1550000000000000000 ) ;
#334 = CYLINDRICAL_SURFACE ( 'NONE', #205, 0.2499999999999999200 ) ;
#335 = CIRCLE ( 'NONE', #206, 0.04000000000000000100 ) ;
#336 = CIRCLE ( 'NONE', #207, 0.1550000000000000000 ) ;
#337 = LINE ( 'NONE', #116, #342 ) ;
#338 = LINE ( 'NONE', #130, #340 ) ;
#339 = CIRCLE ( 'NONE', #208, 0.1550000000000000000 ) ;
#340 = VECTOR ( 'NONE', #120, 39.37007874015748100 ) ;
#341 = CIRCLE ( 'NONE', #209, 0.04000000000000000100 ) ;
#342 = VECTOR ( 'NONE', #112, 39.37007874015748100 ) ;
#343 = CIRCLE ( 'NONE', #211, 0.04000000000000000100 ) ;
#344 = CIRCLE ( 'NONE', #210, 0.06250000000000001400 ) ;
#345 = CIRCLE ( 'NONE', #213, 0.2175000000000000000 ) ;
#346 = LINE ( 'NONE', #111, #348 ) ;
#347 = CIRCLE ( 'NONE', #212, 0.2499999999999999200 ) ;
#348 = VECTOR ( 'NONE', #104, 39.37007874015748100 ) ;
#349 = CIRCLE ( 'NONE', #214, 0.2499999999999999200 ) ;
#350 = LINE ( 'NONE', #96, #352 ) ;
#351 = CIRCLE ( 'NONE', #216, 0.2500000000000000000 ) ;
#352 = VECTOR ( 'NONE', #97, 39.37007874015748100 ) ;
#353 = CIRCLE ( 'NONE', #215, 0.1550000000000000000 ) ;
#354 = LINE ( 'NONE', #89, #356 ) ;
#355 = CIRCLE ( 'NONE', #217, 0.2500000000000000000 ) ;
#356 = VECTOR ( 'NONE', #88, 39.37007874015748100 ) ;
#357 = CIRCLE ( 'NONE', #218, 0.04000000000000000100 ) ;
#358 = CIRCLE ( 'NONE', #219, 0.06250000000000001400 ) ;
#359 = SHAPE_DEFINITION_REPRESENTATION ( #13, #11 ) ;
#360 = LENGTH_MEASURE_WITH_UNIT ( LENGTH_MEASURE( 0.02539999999999999900 ), #55 );
#361 = ORGANIZATION ( 'UNSPECIFIED', 'UNSPECIFIED', '' ) ;
#362 = PERSON_AND_ORGANIZATION ( #29, #361 ) ;
#363 = PERSON_AND_ORGANIZATION ( #29, #361 ) ;
#364 = APPROVAL_PERSON_ORGANIZATION ( #363, #224, #45 ) ;
#365 = COORDINATED_UNIVERSAL_TIME_OFFSET ( 6, 0, .BEHIND. ) ;
#366 = LOCAL_TIME ( 9, 18, 45.00000000000000000, #365 ) ;
#367 = CALENDAR_DATE ( 2012, 9, 2 ) ;
#368 = DATE_AND_TIME ( #367, #366 ) ;
#369 = APPROVAL_DATE_TIME ( #368, #224 ) ;
#370 = PERSON_AND_ORGANIZATION ( #29, #361 ) ;
#371 = COORDINATED_UNIVERSAL_TIME_OFFSET ( 6, 0, .BEHIND. ) ;
#372 = LOCAL_TIME ( 9, 18, 45.00000000000000000, #371 ) ;
#373 = CALENDAR_DATE ( 2012, 9, 2 ) ;
#374 = DATE_AND_TIME ( #373, #372 ) ;
#375 = PERSON_AND_ORGANIZATION ( #29, #361 ) ;
#376 = APPROVAL_PERSON_ORGANIZATION ( #375, #229, #41 ) ;
#377 = COORDINATED_UNIVERSAL_TIME_OFFSET ( 6, 0, .BEHIND. ) ;
#378 = LOCAL_TIME ( 9, 18, 45.00000000000000000, #377 ) ;
#379 = CALENDAR_DATE ( 2012, 9, 2 ) ;
#380 = DATE_AND_TIME ( #379, #378 ) ;
#381 = APPROVAL_DATE_TIME ( #380, #229 ) ;
#382 = PERSON_AND_ORGANIZATION ( #29, #361 ) ;
#383 = PERSON_AND_ORGANIZATION ( #29, #361 ) ;
#384 = PERSON_AND_ORGANIZATION ( #29, #361 ) ;
#385 = COORDINATED_UNIVERSAL_TIME_OFFSET ( 6, 0, .BEHIND. ) ;
#386 = LOCAL_TIME ( 9, 18, 45.00000000000000000, #385 ) ;
#387 = CALENDAR_DATE ( 2012, 9, 2 ) ;
#388 = DATE_AND_TIME ( #387, #386 ) ;
#389 = PERSON_AND_ORGANIZATION ( #29, #361 ) ;
#390 = APPROVAL_PERSON_ORGANIZATION ( #389, #1, #32 ) ;
ENDSEC;
END-ISO-10303-21;
