ISO-10303-21;
HEADER;
FILE_DESCRIPTION (( 'STEP AP214' ),
    '1' );
FILE_NAME ('D1200560-v1_Type-01_BASE OF Cu CLAMP.STEP',
    '2012-10-30T20:00:52',
    ( '' ),
    ( '' ),
    'SwSTEP 2.0',
    'SolidWorks 2012',
    '' );
FILE_SCHEMA (( 'AUTOMOTIVE_DESIGN' ));
ENDSEC;

DATA;
#1 = DIRECTION ( 'NONE',  ( 1.000000000000000000, 0.0000000000000000000, 0.0000000000000000000 ) ) ;
#2 = COLOUR_RGB ( '',0.5372549019607842900, 0.3490196078431372400, 0.3372549019607843400 ) ;
#3 = SURFACE_STYLE_FILL_AREA ( #74 ) ;
#4 = CYLINDRICAL_SURFACE ( 'NONE', #167, 0.03499999999999994800 ) ;
#5 = PRESENTATION_STYLE_ASSIGNMENT (( #76 ) ) ;
#6 = FACE_OUTER_BOUND ( 'NONE', #340, .T. ) ;
#7 = FACE_OUTER_BOUND ( 'NONE', #374, .T. ) ;
#8 = LENGTH_MEASURE_WITH_UNIT ( LENGTH_MEASURE( 0.02539999999999999900 ), #77 );
#9 = CARTESIAN_POINT ( 'NONE',  ( 0.0000000000000000000, 0.2750000000000000200, 0.0000000000000000000 ) ) ;
#10 = DIRECTION ( 'NONE',  ( -0.5000000000000010000, -0.0000000000000000000, -0.8660254037844379300 ) ) ;
#11 = CARTESIAN_POINT ( 'NONE',  ( 0.2374999999999999600, 0.2281249999999999400, 0.1250000000000000600 ) ) ;
#12 = DIRECTION ( 'NONE',  ( -0.0000000000000000000, -1.000000000000000000, -0.0000000000000000000 ) ) ;
#13 = CARTESIAN_POINT ( 'NONE',  ( 0.0000000000000000000, 0.0000000000000000000, 0.0000000000000000000 ) ) ;
#14 = DIRECTION ( 'NONE',  ( 1.000000000000000000, 0.0000000000000000000, 0.0000000000000000000 ) ) ;
#15 = CARTESIAN_POINT ( 'NONE',  ( 0.2374999999999998500, 0.0000000000000000000, 0.1250000000000000000 ) ) ;
#16 = DIRECTION ( 'NONE',  ( -0.0000000000000000000, -0.0000000000000000000, -1.000000000000000000 ) ) ;
#17 = DIRECTION ( 'NONE',  ( -0.0000000000000000000, -0.0000000000000000000, -1.000000000000000000 ) ) ;
#18 =( NAMED_UNIT ( * ) SI_UNIT ( $, .STERADIAN. ) SOLID_ANGLE_UNIT ( ) );
#19 = DIRECTION ( 'NONE',  ( -2.483498176058427700E-016, -0.5000000000000013300, 0.8660254037844377100 ) ) ;
#20 = CARTESIAN_POINT ( 'NONE',  ( 0.2374999999999998500, 0.0000000000000000000, 0.1250000000000000000 ) ) ;
#21 = DIRECTION ( 'NONE',  ( 4.966996352116841500E-016, 1.000000000000000000, 0.0000000000000000000 ) ) ;
#22 = CARTESIAN_POINT ( 'NONE',  ( 0.2374999999999998500, 0.0000000000000000000, 0.0000000000000000000 ) ) ;
#23 = DIRECTION ( 'NONE',  ( 4.966996352116841500E-016, 1.000000000000000000, 0.0000000000000000000 ) ) ;
#24 = CARTESIAN_POINT ( 'NONE',  ( 0.0000000000000000000, 0.2750000000000000200, 0.04381011839520906900 ) ) ;
#25 = DIRECTION ( 'NONE',  ( 1.000000000000000000, 0.0000000000000000000, 0.0000000000000000000 ) ) ;
#26 = DIRECTION ( 'NONE',  ( 1.000000000000000000, 0.0000000000000000000, 0.0000000000000000000 ) ) ;
#27 = CARTESIAN_POINT ( 'NONE',  ( 0.0000000000000000000, 0.0000000000000000000, 0.0000000000000000000 ) ) ;
#28 = PLANE ( 'NONE',  #217 ) ;
#29 = DIRECTION ( 'NONE',  ( 0.0000000000000000000, 0.0000000000000000000, -1.000000000000000000 ) ) ;
#30 = DIRECTION ( 'NONE',  ( 0.0000000000000000000, 0.0000000000000000000, -1.000000000000000000 ) ) ;
#31 = DIRECTION ( 'NONE',  ( -1.000000000000000000, 0.0000000000000000000, -0.0000000000000000000 ) ) ;
#32 = CARTESIAN_POINT ( 'NONE',  ( 0.0000000000000000000, 0.0000000000000000000, 0.1250000000000000000 ) ) ;
#33 = PLANE ( 'NONE',  #220 ) ;
#34 = PLANE ( 'NONE',  #218 ) ;
#35 = CARTESIAN_POINT ( 'NONE',  ( 0.0000000000000000000, 0.0000000000000000000, 0.1250000000000000000 ) ) ;
#36 = DIRECTION ( 'NONE',  ( -1.000000000000000000, 0.0000000000000000000, -0.0000000000000000000 ) ) ;
#37 = DIRECTION ( 'NONE',  ( -0.0000000000000000000, -0.0000000000000000000, 1.000000000000000000 ) ) ;
#38 = FILL_AREA_STYLE_COLOUR ( '', #278 ) ;
#39 = DIRECTION ( 'NONE',  ( 0.0000000000000000000, 1.000000000000000000, 0.0000000000000000000 ) ) ;
#40 = DIRECTION ( 'NONE',  ( 0.0000000000000000000, -0.0000000000000000000, 1.000000000000000000 ) ) ;
#41 = CARTESIAN_POINT ( 'NONE',  ( 0.1256249999999998500, 0.07817499999999999400, 0.1250000000000000000 ) ) ;
#42 = CARTESIAN_POINT ( 'NONE',  ( 0.0000000000000000000, 0.2750000000000000200, 0.1250000000000000000 ) ) ;
#43 = FILL_AREA_STYLE ('',( #38 ) ) ;
#44 = SURFACE_SIDE_STYLE ('',( #272 ) ) ;
#45 = SURFACE_STYLE_USAGE ( .BOTH. , #44 ) ;
#46 =( LENGTH_UNIT ( ) NAMED_UNIT ( * ) SI_UNIT ( $, .METRE. ) );
#47 =( CONVERSION_BASED_UNIT ( 'INCH', #277 ) LENGTH_UNIT ( ) NAMED_UNIT ( #209 ) );
#48 =( NAMED_UNIT ( * ) PLANE_ANGLE_UNIT ( ) SI_UNIT ( $, .RADIAN. ) );
#49 =( NAMED_UNIT ( * ) SI_UNIT ( $, .STERADIAN. ) SOLID_ANGLE_UNIT ( ) );
#50 = DIRECTION ( 'NONE',  ( 1.000000000000000000, 0.0000000000000000000, 0.0000000000000000000 ) ) ;
#51 = PLANE ( 'NONE',  #169 ) ;
#52 = PLANE ( 'NONE',  #168 ) ;
#53 = CARTESIAN_POINT ( 'NONE',  ( 0.0000000000000000000, 0.0000000000000000000, 0.1250000000000000000 ) ) ;
#54 = DIRECTION ( 'NONE',  ( 0.0000000000000000000, -1.000000000000000000, 0.0000000000000000000 ) ) ;
#55 = DIRECTION ( 'NONE',  ( 0.0000000000000000000, -0.0000000000000000000, -1.000000000000000000 ) ) ;
#56 =( LENGTH_UNIT ( ) NAMED_UNIT ( * ) SI_UNIT ( $, .METRE. ) );
#57 =( CONVERSION_BASED_UNIT ( 'INCH', #280 ) LENGTH_UNIT ( ) NAMED_UNIT ( #326 ) );
#58 = DIRECTION ( 'NONE',  ( 1.000000000000000000, 0.0000000000000000000, 0.0000000000000000000 ) ) ;
#59 = DIRECTION ( 'NONE',  ( 0.0000000000000000000, 0.0000000000000000000, -1.000000000000000000 ) ) ;
#60 =( NAMED_UNIT ( * ) PLANE_ANGLE_UNIT ( ) SI_UNIT ( $, .RADIAN. ) );
#61 =( NAMED_UNIT ( * ) SI_UNIT ( $, .STERADIAN. ) SOLID_ANGLE_UNIT ( ) );
#62 = CARTESIAN_POINT ( 'NONE',  ( 0.0000000000000000000, 0.0000000000000000000, 0.0000000000000000000 ) ) ;
#63 = DIRECTION ( 'NONE',  ( 0.0000000000000000000, 0.0000000000000000000, 1.000000000000000000 ) ) ;
#64 = DIRECTION ( 'NONE',  ( 1.000000000000000000, 0.0000000000000000000, 0.0000000000000000000 ) ) ;
#65 = PRODUCT_CONTEXT ( 'NONE', #99, 'mechanical' ) ;
#66 = APPLICATION_CONTEXT ( 'automotive_design' ) ;
#67 = APPLICATION_PROTOCOL_DEFINITION ( 'draft international standard', 'automotive_design', 1998, #66 ) ;
#68 = CARTESIAN_POINT ( 'NONE',  ( 0.0000000000000000000, 0.0000000000000000000, 0.0000000000000000000 ) ) ;
#69 = PLANE ( 'NONE',  #171 ) ;
#70 = CARTESIAN_POINT ( 'NONE',  ( 0.2374999999999998500, 0.0000000000000000000, 0.1250000000000000000 ) ) ;
#71 = DIRECTION ( 'NONE',  ( -1.000000000000000000, 4.966996352116841500E-016, 0.0000000000000000000 ) ) ;
#72 = DIRECTION ( 'NONE',  ( -4.966996352116841500E-016, -1.000000000000000000, 0.0000000000000000000 ) ) ;
#73 = CARTESIAN_POINT ( 'NONE',  ( 0.04687500000000010400, 0.2281249999999999900, 0.1250000000000000000 ) ) ;
#74 = FILL_AREA_STYLE ('',( #128 ) ) ;
#75 = SURFACE_SIDE_STYLE ('',( #3 ) ) ;
#76 = SURFACE_STYLE_USAGE ( .BOTH. , #75 ) ;
#77 =( LENGTH_UNIT ( ) NAMED_UNIT ( * ) SI_UNIT ( $, .METRE. ) );
#78 =( CONVERSION_BASED_UNIT ( 'INCH', #8 ) LENGTH_UNIT ( ) NAMED_UNIT ( #325 ) );
#79 =( NAMED_UNIT ( * ) PLANE_ANGLE_UNIT ( ) SI_UNIT ( $, .RADIAN. ) );
#80 =( NAMED_UNIT ( * ) SI_UNIT ( $, .STERADIAN. ) SOLID_ANGLE_UNIT ( ) );
#81 = CARTESIAN_POINT ( 'NONE',  ( 0.04687500000000009700, 0.0000000000000000000, 0.1250000000000000000 ) ) ;
#82 = CARTESIAN_POINT ( 'NONE',  ( 0.0000000000000000000, 0.0000000000000000000, 0.04381011839520893000 ) ) ;
#83 = CARTESIAN_POINT ( 'NONE',  ( 0.1606249999999998000, 0.07817499999999999400, 0.0000000000000000000 ) ) ;
#84 = CARTESIAN_POINT ( 'NONE',  ( 0.2374999999999998500, 0.0000000000000000000, 0.0000000000000000000 ) ) ;
#85 = CARTESIAN_POINT ( 'NONE',  ( 0.09062499999999994200, 0.07817499999999999400, 0.1250000000000000000 ) ) ;
#86 = CARTESIAN_POINT ( 'NONE',  ( 0.09062499999999992800, 0.07817499999999999400, 0.0000000000000000000 ) ) ;
#87 = CARTESIAN_POINT ( 'NONE',  ( 0.2374999999999998500, 0.0000000000000000000, 0.1250000000000000000 ) ) ;
#88 = CARTESIAN_POINT ( 'NONE',  ( -4.268512490100411300E-018, 0.2750000000000000200, 0.04381011839520892300 ) ) ;
#89 = CARTESIAN_POINT ( 'NONE',  ( 0.2374999999999999900, 0.2750000000000000200, 0.0000000000000000000 ) ) ;
#90 = CARTESIAN_POINT ( 'NONE',  ( 0.1606249999999997700, 0.07817499999999999400, 0.1250000000000000000 ) ) ;
#91 = CARTESIAN_POINT ( 'NONE',  ( 0.0000000000000000000, 0.2750000000000000200, 0.0000000000000000000 ) ) ;
#92 =( LENGTH_UNIT ( ) NAMED_UNIT ( * ) SI_UNIT ( $, .METRE. ) );
#93 = CARTESIAN_POINT ( 'NONE',  ( 0.2374999999999999600, 0.2281249999999999100, 0.1250000000000000300 ) ) ;
#94 = CARTESIAN_POINT ( 'NONE',  ( 0.2374999999999999900, 0.2750000000000000800, 0.04381011839520904100 ) ) ;
#95 =( CONVERSION_BASED_UNIT ( 'INCH', #267 ) LENGTH_UNIT ( ) NAMED_UNIT ( #207 ) );
#96 =( NAMED_UNIT ( * ) PLANE_ANGLE_UNIT ( ) SI_UNIT ( $, .RADIAN. ) );
#97 =( NAMED_UNIT ( * ) SI_UNIT ( $, .STERADIAN. ) SOLID_ANGLE_UNIT ( ) );
#98 = APPLICATION_PROTOCOL_DEFINITION ( 'draft international standard', 'automotive_design', 1998, #99 ) ;
#99 = APPLICATION_CONTEXT ( 'automotive_design' ) ;
#100 = FILL_AREA_STYLE_COLOUR ( '', #266 ) ;
#101 = FILL_AREA_STYLE ('',( #100 ) ) ;
#102 = SURFACE_SIDE_STYLE ('',( #263 ) ) ;
#103 = SURFACE_STYLE_USAGE ( .BOTH. , #102 ) ;
#104 = CARTESIAN_POINT ( 'NONE',  ( 0.0000000000000000000, 0.2750000000000000200, 0.1250000000000000000 ) ) ;
#105 = CARTESIAN_POINT ( 'NONE',  ( 0.04687500000000009700, 0.0000000000000000000, 0.1250000000000000000 ) ) ;
#106 = DIRECTION ( 'NONE',  ( 0.0000000000000000000, -1.000000000000000000, 0.0000000000000000000 ) ) ;
#107 = DIRECTION ( 'NONE',  ( -0.0000000000000000000, -0.0000000000000000000, 1.000000000000000000 ) ) ;
#108 = CARTESIAN_POINT ( 'NONE',  ( 0.1256249999999998500, 0.07817499999999999400, 0.0000000000000000000 ) ) ;
#109 = DIRECTION ( 'NONE',  ( 0.0000000000000000000, 0.0000000000000000000, -1.000000000000000000 ) ) ;
#110 = DIRECTION ( 'NONE',  ( -1.000000000000000000, 0.0000000000000000000, 0.0000000000000000000 ) ) ;
#111 = DIRECTION ( 'NONE',  ( -0.0000000000000000000, -0.0000000000000000000, -1.000000000000000000 ) ) ;
#112 = CARTESIAN_POINT ( 'NONE',  ( 0.0000000000000000000, 0.0000000000000000000, 0.04381011839520893000 ) ) ;
#113 = DIRECTION ( 'NONE',  ( 0.0000000000000000000, 1.000000000000000000, 0.0000000000000000000 ) ) ;
#114 = CARTESIAN_POINT ( 'NONE',  ( 0.0000000000000000000, 0.0000000000000000000, 0.1250000000000000000 ) ) ;
#115 = DIRECTION ( 'NONE',  ( -0.0000000000000000000, -0.0000000000000000000, -1.000000000000000000 ) ) ;
#116 = DIRECTION ( 'NONE',  ( -0.0000000000000000000, -0.0000000000000000000, 1.000000000000000000 ) ) ;
#117 = CARTESIAN_POINT ( 'NONE',  ( 0.09062499999999992800, 0.07817499999999999400, 0.1250000000000000000 ) ) ;
#118 = CARTESIAN_POINT ( 'NONE',  ( 0.1606249999999998000, 0.07817499999999999400, 0.1250000000000000000 ) ) ;
#119 = CARTESIAN_POINT ( 'NONE',  ( 0.1256249999999998500, 0.07817499999999999400, 0.0000000000000000000 ) ) ;
#120 = DIRECTION ( 'NONE',  ( 0.0000000000000000000, 0.0000000000000000000, -1.000000000000000000 ) ) ;
#121 = DIRECTION ( 'NONE',  ( -1.000000000000000000, 0.0000000000000000000, 0.0000000000000000000 ) ) ;
#122 = CARTESIAN_POINT ( 'NONE',  ( 0.1256249999999998500, 0.07817499999999999400, 0.1250000000000000000 ) ) ;
#123 = CARTESIAN_POINT ( 'NONE',  ( 0.1256249999999998500, 0.07817499999999999400, 0.1250000000000000000 ) ) ;
#124 = DIRECTION ( 'NONE',  ( -0.0000000000000000000, -0.0000000000000000000, 1.000000000000000000 ) ) ;
#125 = DIRECTION ( 'NONE',  ( 1.000000000000000000, 0.0000000000000000000, 0.0000000000000000000 ) ) ;
#126 = DIRECTION ( 'NONE',  ( -0.0000000000000000000, -0.0000000000000000000, 1.000000000000000000 ) ) ;
#127 = FILL_AREA_STYLE_COLOUR ( '', #283 ) ;
#128 = FILL_AREA_STYLE_COLOUR ( '', #2 ) ;
#129 = FILL_AREA_STYLE ('',( #127 ) ) ;
#130 = SURFACE_SIDE_STYLE ('',( #285 ) ) ;
#131 = SURFACE_STYLE_USAGE ( .BOTH. , #130 ) ;
#132 =( LENGTH_UNIT ( ) NAMED_UNIT ( * ) SI_UNIT ( $, .METRE. ) );
#133 =( CONVERSION_BASED_UNIT ( 'INCH', #281 ) LENGTH_UNIT ( ) NAMED_UNIT ( #208 ) );
#134 = EDGE_CURVE ( 'NONE', #318, #323, #330, .T. ) ;
#135 = EDGE_CURVE ( 'NONE', #377, #320, #328, .T. ) ;
#136 = EDGE_CURVE ( 'NONE', #309, #321, #246, .T. ) ;
#137 = EDGE_CURVE ( 'NONE', #309, #324, #243, .T. ) ;
#138 = EDGE_CURVE ( 'NONE', #320, #317, #247, .T. ) ;
#139 = EDGE_CURVE ( 'NONE', #321, #317, #241, .T. ) ;
#140 = EDGE_CURVE ( 'NONE', #378, #373, #244, .T. ) ;
#141 = EDGE_CURVE ( 'NONE', #378, #376, #239, .T. ) ;
#142 = EDGE_CURVE ( 'NONE', #321, #376, #235, .T. ) ;
#143 = EDGE_CURVE ( 'NONE', #317, #373, #233, .T. ) ;
#144 = EDGE_CURVE ( 'NONE', #323, #378, #230, .T. ) ;
#145 = EDGE_CURVE ( 'NONE', #373, #377, #228, .T. ) ;
#146 = EDGE_CURVE ( 'NONE', #375, #322, #226, .T. ) ;
#147 = EDGE_CURVE ( 'NONE', #376, #318, #237, .T. ) ;
#148 = ADVANCED_FACE ( 'NONE', ( #248 ), #190, .F. ) ;
#149 = ADVANCED_FACE ( 'NONE', ( #222 ), #185, .F. ) ;
#150 = EDGE_CURVE ( 'NONE', #318, #309, #231, .T. ) ;
#151 = EDGE_CURVE ( 'NONE', #319, #300, #297, .T. ) ;
#152 = EDGE_CURVE ( 'NONE', #323, #377, #298, .T. ) ;
#153 = EDGE_CURVE ( 'NONE', #324, #323, #296, .T. ) ;
#154 = EDGE_CURVE ( 'NONE', #324, #320, #294, .T. ) ;
#155 = EDGE_CURVE ( 'NONE', #300, #319, #292, .T. ) ;
#156 = EDGE_CURVE ( 'NONE', #300, #375, #288, .T. ) ;
#157 = EDGE_CURVE ( 'NONE', #322, #375, #289, .T. ) ;
#158 = EDGE_CURVE ( 'NONE', #319, #322, #286, .T. ) ;
#159 = AXIS2_PLACEMENT_3D ( 'NONE', #187, #188, #189 ) ;
#160 = AXIS2_PLACEMENT_3D ( 'NONE', #192, #194, #195 ) ;
#161 = AXIS2_PLACEMENT_3D ( 'NONE', #108, #109, #110 ) ;
#162 = AXIS2_PLACEMENT_3D ( 'NONE', #193, #197, #198 ) ;
#163 = CARTESIAN_POINT ( 'NONE',  ( 0.09250000000000027600, 0.1824999999999997700, 0.2040248180953301000 ) ) ;
#164 = PRODUCT ( 'D1200560-v1_Type-01_BASE OF Cu CLAMP', 'D1200560-v1_Type-01_BASE OF Cu CLAMP', '', ( #65 ) ) ;
#165 = MECHANICAL_DESIGN_GEOMETRIC_PRESENTATION_REPRESENTATION (  '', ( #219 ), #166 ) ;
#166 =( GEOMETRIC_REPRESENTATION_CONTEXT ( 3 ) GLOBAL_UNCERTAINTY_ASSIGNED_CONTEXT ( ( #252 ) ) GLOBAL_UNIT_ASSIGNED_CONTEXT ( ( #47, #48, #49 ) ) REPRESENTATION_CONTEXT ( 'NONE', 'WORKASPACE' ) );
#167 = AXIS2_PLACEMENT_3D ( 'NONE', #41, #37, #50 ) ;
#168 = AXIS2_PLACEMENT_3D ( 'NONE', #42, #54, #55 ) ;
#169 = AXIS2_PLACEMENT_3D ( 'NONE', #53, #58, #59 ) ;
#170 = STYLED_ITEM ( 'NONE', ( #5 ), #257 ) ;
#171 = AXIS2_PLACEMENT_3D ( 'NONE', #70, #71, #72 ) ;
#172 = PRESENTATION_LAYER_ASSIGNMENT (  '', '', ( #170 ) ) ;
#173 = MECHANICAL_DESIGN_GEOMETRIC_PRESENTATION_REPRESENTATION (  '', ( #170 ), #174 ) ;
#174 =( GEOMETRIC_REPRESENTATION_CONTEXT ( 3 ) GLOBAL_UNCERTAINTY_ASSIGNED_CONTEXT ( ( #258 ) ) GLOBAL_UNIT_ASSIGNED_CONTEXT ( ( #78, #79, #80 ) ) REPRESENTATION_CONTEXT ( 'NONE', 'WORKASPACE' ) );
#175 =( GEOMETRIC_REPRESENTATION_CONTEXT ( 3 ) GLOBAL_UNCERTAINTY_ASSIGNED_CONTEXT ( ( #255 ) ) GLOBAL_UNIT_ASSIGNED_CONTEXT ( ( #95, #96, #97 ) ) REPRESENTATION_CONTEXT ( 'NONE', 'WORKASPACE' ) );
#176 = STYLED_ITEM ( 'NONE', ( #265 ), #254 ) ;
#177 = PRESENTATION_LAYER_ASSIGNMENT (  '', '', ( #176 ) ) ;
#178 = MECHANICAL_DESIGN_GEOMETRIC_PRESENTATION_REPRESENTATION (  '', ( #176 ), #179 ) ;
#179 =( GEOMETRIC_REPRESENTATION_CONTEXT ( 3 ) GLOBAL_UNCERTAINTY_ASSIGNED_CONTEXT ( ( #253 ) ) GLOBAL_UNIT_ASSIGNED_CONTEXT ( ( #57, #60, #61 ) ) REPRESENTATION_CONTEXT ( 'NONE', 'WORKASPACE' ) );
#180 = AXIS2_PLACEMENT_3D ( 'NONE', #62, #63, #64 ) ;
#181 = PRODUCT_DEFINITION ( 'UNKNOWN', '', #182, #261 ) ;
#182 = PRODUCT_DEFINITION_FORMATION_WITH_SPECIFIED_SOURCE ( 'ANY', '', #164, .NOT_KNOWN. ) ;
#183 = PRODUCT_RELATED_PRODUCT_CATEGORY ( 'part', '', ( #164 ) ) ;
#184 = DIRECTION ( 'NONE',  ( -1.000000000000000000, -0.0000000000000000000, -0.0000000000000000000 ) ) ;
#185 = PLANE ( 'NONE',  #162 ) ;
#186 = CARTESIAN_POINT ( 'NONE',  ( 0.0000000000000000000, 0.2281249999999999700, 0.1250000000000000000 ) ) ;
#187 = CARTESIAN_POINT ( 'NONE',  ( 0.1256249999999998500, 0.07817499999999999400, 0.1250000000000000000 ) ) ;
#188 = DIRECTION ( 'NONE',  ( -0.0000000000000000000, -0.0000000000000000000, 1.000000000000000000 ) ) ;
#189 = DIRECTION ( 'NONE',  ( 1.000000000000000000, 0.0000000000000000000, 0.0000000000000000000 ) ) ;
#190 = PLANE ( 'NONE',  #160 ) ;
#191 = DIRECTION ( 'NONE',  ( -1.000000000000000000, 0.0000000000000000000, 0.0000000000000000000 ) ) ;
#192 = CARTESIAN_POINT ( 'NONE',  ( 0.0000000000000000000, 0.2281249999999999700, 0.1250000000000000000 ) ) ;
#193 = CARTESIAN_POINT ( 'NONE',  ( 0.04687500000000009700, 0.0000000000000000000, 0.1250000000000000000 ) ) ;
#194 = DIRECTION ( 'NONE',  ( -0.0000000000000000000, -0.8660254037844379300, -0.5000000000000014400 ) ) ;
#195 = DIRECTION ( 'NONE',  ( -1.000000000000000000, 0.0000000000000000000, 0.0000000000000000000 ) ) ;
#196 =( NAMED_UNIT ( * ) PLANE_ANGLE_UNIT ( ) SI_UNIT ( $, .RADIAN. ) );
#197 = DIRECTION ( 'NONE',  ( 0.8660254037844380400, 0.0000000000000000000, -0.5000000000000011100 ) ) ;
#198 = DIRECTION ( 'NONE',  ( 0.0000000000000000000, -1.000000000000000000, 0.0000000000000000000 ) ) ;
#199 = ADVANCED_FACE ( 'NONE', ( #282 ), #269, .F. ) ;
#200 = ADVANCED_FACE ( 'NONE', ( #268, #275 ), #28, .T. ) ;
#201 = ADVANCED_FACE ( 'NONE', ( #271, #274 ), #34, .F. ) ;
#202 = ADVANCED_FACE ( 'NONE', ( #270 ), #33, .F. ) ;
#203 = ADVANCED_FACE ( 'NONE', ( #273 ), #4, .F. ) ;
#204 = ADVANCED_FACE ( 'NONE', ( #7 ), #52, .F. ) ;
#205 = ADVANCED_FACE ( 'NONE', ( #279 ), #51, .F. ) ;
#206 = ADVANCED_FACE ( 'NONE', ( #6 ), #69, .F. ) ;
#207 = DIMENSIONAL_EXPONENTS ( 1.000000000000000000, 0.0000000000000000000, 0.0000000000000000000, 0.0000000000000000000, 0.0000000000000000000, 0.0000000000000000000, 0.0000000000000000000 ) ;
#208 = DIMENSIONAL_EXPONENTS ( 1.000000000000000000, 0.0000000000000000000, 0.0000000000000000000, 0.0000000000000000000, 0.0000000000000000000, 0.0000000000000000000, 0.0000000000000000000 ) ;
#209 = DIMENSIONAL_EXPONENTS ( 1.000000000000000000, 0.0000000000000000000, 0.0000000000000000000, 0.0000000000000000000, 0.0000000000000000000, 0.0000000000000000000, 0.0000000000000000000 ) ;
#210 = AXIS2_PLACEMENT_3D ( 'NONE', #119, #120, #121 ) ;
#211 = AXIS2_PLACEMENT_3D ( 'NONE', #123, #124, #125 ) ;
#212 = STYLED_ITEM ( 'NONE', ( #290 ), #199 ) ;
#213 = PRESENTATION_LAYER_ASSIGNMENT (  '', '', ( #212 ) ) ;
#214 = MECHANICAL_DESIGN_GEOMETRIC_PRESENTATION_REPRESENTATION (  '', ( #212 ), #215 ) ;
#215 =( GEOMETRIC_REPRESENTATION_CONTEXT ( 3 ) GLOBAL_UNCERTAINTY_ASSIGNED_CONTEXT ( ( #256 ) ) GLOBAL_UNIT_ASSIGNED_CONTEXT ( ( #133, #196, #18 ) ) REPRESENTATION_CONTEXT ( 'NONE', 'WORKASPACE' ) );
#216 = AXIS2_PLACEMENT_3D ( 'NONE', #122, #126, #26 ) ;
#217 = AXIS2_PLACEMENT_3D ( 'NONE', #27, #30, #31 ) ;
#218 = AXIS2_PLACEMENT_3D ( 'NONE', #32, #29, #36 ) ;
#219 = STYLED_ITEM ( 'NONE', ( #276 ), #203 ) ;
#220 = AXIS2_PLACEMENT_3D ( 'NONE', #35, #39, #40 ) ;
#221 = PRESENTATION_LAYER_ASSIGNMENT (  '', '', ( #219 ) ) ;
#222 = FACE_OUTER_BOUND ( 'NONE', #332, .T. ) ;
#223 = VECTOR ( 'NONE', #191, 39.37007874015748100 ) ;
#224 = VECTOR ( 'NONE', #106, 39.37007874015748100 ) ;
#225 = VECTOR ( 'NONE', #184, 39.37007874015748100 ) ;
#226 = CIRCLE ( 'NONE', #159, 0.03499999999999992000 ) ;
#227 = VECTOR ( 'NONE', #25, 39.37007874015748100 ) ;
#228 = LINE ( 'NONE', #9, #225 ) ;
#229 = VECTOR ( 'NONE', #23, 39.37007874015748100 ) ;
#230 = LINE ( 'NONE', #24, #227 ) ;
#231 = LINE ( 'NONE', #105, #224 ) ;
#232 = VECTOR ( 'NONE', #21, 39.37007874015748100 ) ;
#233 = LINE ( 'NONE', #22, #229 ) ;
#234 = VECTOR ( 'NONE', #19, 39.37007874015748900 ) ;
#235 = LINE ( 'NONE', #20, #232 ) ;
#236 = VECTOR ( 'NONE', #17, 39.37007874015748100 ) ;
#237 = LINE ( 'NONE', #186, #223 ) ;
#238 = VECTOR ( 'NONE', #16, 39.37007874015748100 ) ;
#239 = LINE ( 'NONE', #11, #234 ) ;
#240 = VECTOR ( 'NONE', #14, 39.37007874015748100 ) ;
#241 = LINE ( 'NONE', #15, #238 ) ;
#242 = VECTOR ( 'NONE', #10, 39.37007874015748900 ) ;
#243 = LINE ( 'NONE', #259, #242 ) ;
#244 = LINE ( 'NONE', #249, #236 ) ;
#245 = VECTOR ( 'NONE', #1, 39.37007874015748100 ) ;
#246 = LINE ( 'NONE', #250, #245 ) ;
#247 = LINE ( 'NONE', #13, #240 ) ;
#248 = FACE_OUTER_BOUND ( 'NONE', #339, .T. ) ;
#249 = CARTESIAN_POINT ( 'NONE',  ( 0.2374999999999999900, 0.2750000000000000200, 0.1250000000000000000 ) ) ;
#250 = CARTESIAN_POINT ( 'NONE',  ( 0.0000000000000000000, 0.0000000000000000000, 0.1250000000000000000 ) ) ;
#251 = CARTESIAN_POINT ( 'NONE',  ( 0.0000000000000000000, 0.0000000000000000000, 0.0000000000000000000 ) ) ;
#252 = UNCERTAINTY_MEASURE_WITH_UNIT (LENGTH_MEASURE( 1.000000000000000100E-005 ), #47, 'distance_accuracy_value', 'NONE');
#253 = UNCERTAINTY_MEASURE_WITH_UNIT (LENGTH_MEASURE( 1.000000000000000100E-005 ), #57, 'distance_accuracy_value', 'NONE');
#254 = ADVANCED_BREP_SHAPE_REPRESENTATION ( 'D1200560-v1_Type-01_BASE OF Cu CLAMP', ( #257, #180 ), #175 ) ;
#255 = UNCERTAINTY_MEASURE_WITH_UNIT (LENGTH_MEASURE( 1.000000000000000100E-005 ), #95, 'distance_accuracy_value', 'NONE');
#256 = UNCERTAINTY_MEASURE_WITH_UNIT (LENGTH_MEASURE( 1.000000000000000100E-005 ), #133, 'distance_accuracy_value', 'NONE');
#257 = MANIFOLD_SOLID_BREP ( 'Chamfer2', #355 ) ;
#258 = UNCERTAINTY_MEASURE_WITH_UNIT (LENGTH_MEASURE( 1.000000000000000100E-005 ), #78, 'distance_accuracy_value', 'NONE');
#259 = CARTESIAN_POINT ( 'NONE',  ( 0.04687500000000009700, 0.0000000000000000000, 0.1250000000000000000 ) ) ;
#260 = DIRECTION ( 'NONE',  ( -0.4472135954999585900, 0.4472135954999589300, -0.7745966692414824100 ) ) ;
#261 = PRODUCT_DEFINITION_CONTEXT ( 'detailed design', #66, 'design' ) ;
#262 = PRODUCT_DEFINITION_SHAPE ( 'NONE', 'NONE',  #181 ) ;
#263 = SURFACE_STYLE_FILL_AREA ( #101 ) ;
#264 = SHAPE_DEFINITION_REPRESENTATION ( #262, #254 ) ;
#265 = PRESENTATION_STYLE_ASSIGNMENT (( #103 ) ) ;
#266 = COLOUR_RGB ( '',0.5372549019607842900, 0.3490196078431372400, 0.3372549019607843400 ) ;
#267 = LENGTH_MEASURE_WITH_UNIT ( LENGTH_MEASURE( 0.02539999999999999900 ), #92 );
#268 = FACE_BOUND ( 'NONE', #333, .T. ) ;
#269 = CYLINDRICAL_SURFACE ( 'NONE', #216, 0.03499999999999994800 ) ;
#270 = FACE_OUTER_BOUND ( 'NONE', #338, .T. ) ;
#271 = FACE_BOUND ( 'NONE', #335, .T. ) ;
#272 = SURFACE_STYLE_FILL_AREA ( #43 ) ;
#273 = FACE_OUTER_BOUND ( 'NONE', #341, .T. ) ;
#274 = FACE_OUTER_BOUND ( 'NONE', #336, .T. ) ;
#275 = FACE_OUTER_BOUND ( 'NONE', #337, .T. ) ;
#276 = PRESENTATION_STYLE_ASSIGNMENT (( #45 ) ) ;
#277 = LENGTH_MEASURE_WITH_UNIT ( LENGTH_MEASURE( 0.02539999999999999900 ), #46 );
#278 = COLOUR_RGB ( '',0.5372549019607842900, 0.3490196078431372400, 0.3372549019607843400 ) ;
#279 = FACE_OUTER_BOUND ( 'NONE', #334, .T. ) ;
#280 = LENGTH_MEASURE_WITH_UNIT ( LENGTH_MEASURE( 0.02539999999999999900 ), #56 );
#281 = LENGTH_MEASURE_WITH_UNIT ( LENGTH_MEASURE( 0.02539999999999999900 ), #132 );
#282 = FACE_OUTER_BOUND ( 'NONE', #331, .T. ) ;
#283 = COLOUR_RGB ( '',0.5372549019607842900, 0.3490196078431372400, 0.3372549019607843400 ) ;
#284 = VECTOR ( 'NONE', #116, 39.37007874015748100 ) ;
#285 = SURFACE_STYLE_FILL_AREA ( #129 ) ;
#286 = LINE ( 'NONE', #117, #284 ) ;
#287 = VECTOR ( 'NONE', #107, 39.37007874015748100 ) ;
#288 = LINE ( 'NONE', #118, #287 ) ;
#289 = CIRCLE ( 'NONE', #211, 0.03499999999999992000 ) ;
#290 = PRESENTATION_STYLE_ASSIGNMENT (( #131 ) ) ;
#291 = VECTOR ( 'NONE', #115, 39.37007874015748100 ) ;
#292 = CIRCLE ( 'NONE', #210, 0.03499999999999993400 ) ;
#293 = VECTOR ( 'NONE', #113, 39.37007874015748100 ) ;
#294 = LINE ( 'NONE', #114, #291 ) ;
#295 = VECTOR ( 'NONE', #111, 39.37007874015748100 ) ;
#296 = LINE ( 'NONE', #112, #293 ) ;
#297 = CIRCLE ( 'NONE', #161, 0.03499999999999993400 ) ;
#298 = LINE ( 'NONE', #104, #295 ) ;
#299 = ORIENTED_EDGE ( 'NONE', *, *, #153, .T. ) ;
#300 = VERTEX_POINT ( 'NONE', #83 ) ;
#301 = ORIENTED_EDGE ( 'NONE', *, *, #152, .T. ) ;
#302 = ORIENTED_EDGE ( 'NONE', *, *, #135, .T. ) ;
#303 = ORIENTED_EDGE ( 'NONE', *, *, #136, .F. ) ;
#304 = ORIENTED_EDGE ( 'NONE', *, *, #157, .F. ) ;
#305 = ORIENTED_EDGE ( 'NONE', *, *, #137, .T. ) ;
#306 = ORIENTED_EDGE ( 'NONE', *, *, #150, .T. ) ;
#307 = ORIENTED_EDGE ( 'NONE', *, *, #142, .T. ) ;
#308 = ORIENTED_EDGE ( 'NONE', *, *, #147, .T. ) ;
#309 = VERTEX_POINT ( 'NONE', #81 ) ;
#310 = ORIENTED_EDGE ( 'NONE', *, *, #154, .F. ) ;
#311 = ORIENTED_EDGE ( 'NONE', *, *, #155, .F. ) ;
#312 = ORIENTED_EDGE ( 'NONE', *, *, #156, .F. ) ;
#313 = ORIENTED_EDGE ( 'NONE', *, *, #136, .T. ) ;
#314 = ORIENTED_EDGE ( 'NONE', *, *, #157, .T. ) ;
#315 = ORIENTED_EDGE ( 'NONE', *, *, #155, .T. ) ;
#316 = ORIENTED_EDGE ( 'NONE', *, *, #158, .T. ) ;
#317 = VERTEX_POINT ( 'NONE', #84 ) ;
#318 = VERTEX_POINT ( 'NONE', #73 ) ;
#319 = VERTEX_POINT ( 'NONE', #86 ) ;
#320 = VERTEX_POINT ( 'NONE', #68 ) ;
#321 = VERTEX_POINT ( 'NONE', #87 ) ;
#322 = VERTEX_POINT ( 'NONE', #85 ) ;
#323 = VERTEX_POINT ( 'NONE', #88 ) ;
#324 = VERTEX_POINT ( 'NONE', #82 ) ;
#325 = DIMENSIONAL_EXPONENTS ( 1.000000000000000000, 0.0000000000000000000, 0.0000000000000000000, 0.0000000000000000000, 0.0000000000000000000, 0.0000000000000000000, 0.0000000000000000000 ) ;
#326 = DIMENSIONAL_EXPONENTS ( 1.000000000000000000, 0.0000000000000000000, 0.0000000000000000000, 0.0000000000000000000, 0.0000000000000000000, 0.0000000000000000000, 0.0000000000000000000 ) ;
#327 = VECTOR ( 'NONE', #12, 39.37007874015748100 ) ;
#328 = LINE ( 'NONE', #251, #327 ) ;
#329 = VECTOR ( 'NONE', #260, 39.37007874015748900 ) ;
#330 = LINE ( 'NONE', #163, #329 ) ;
#331 = EDGE_LOOP ( 'NONE', ( #367, #366, #365, #364 ) ) ;
#332 = EDGE_LOOP ( 'NONE', ( #363, #362, #361, #360 ) ) ;
#333 = EDGE_LOOP ( 'NONE', ( #311, #372 ) ) ;
#334 = EDGE_LOOP ( 'NONE', ( #310, #299, #301, #302 ) ) ;
#335 = EDGE_LOOP ( 'NONE', ( #342, #304 ) ) ;
#336 = EDGE_LOOP ( 'NONE', ( #307, #308, #306, #313 ) ) ;
#337 = EDGE_LOOP ( 'NONE', ( #371, #370, #369, #368 ) ) ;
#338 = EDGE_LOOP ( 'NONE', ( #303, #305, #354, #353, #352 ) ) ;
#339 = EDGE_LOOP ( 'NONE', ( #359, #358, #357, #356 ) ) ;
#340 = EDGE_LOOP ( 'NONE', ( #351, #350, #349, #348, #347 ) ) ;
#341 = EDGE_LOOP ( 'NONE', ( #315, #316, #314, #312 ) ) ;
#342 = ORIENTED_EDGE ( 'NONE', *, *, #146, .F. ) ;
#343 = ORIENTED_EDGE ( 'NONE', *, *, #145, .T. ) ;
#344 = ORIENTED_EDGE ( 'NONE', *, *, #140, .T. ) ;
#345 = ORIENTED_EDGE ( 'NONE', *, *, #144, .T. ) ;
#346 = ORIENTED_EDGE ( 'NONE', *, *, #152, .F. ) ;
#347 = ORIENTED_EDGE ( 'NONE', *, *, #143, .T. ) ;
#348 = ORIENTED_EDGE ( 'NONE', *, *, #139, .T. ) ;
#349 = ORIENTED_EDGE ( 'NONE', *, *, #142, .F. ) ;
#350 = ORIENTED_EDGE ( 'NONE', *, *, #141, .T. ) ;
#351 = ORIENTED_EDGE ( 'NONE', *, *, #140, .F. ) ;
#352 = ORIENTED_EDGE ( 'NONE', *, *, #139, .F. ) ;
#353 = ORIENTED_EDGE ( 'NONE', *, *, #138, .T. ) ;
#354 = ORIENTED_EDGE ( 'NONE', *, *, #154, .T. ) ;
#355 = CLOSED_SHELL ( 'NONE', ( #203, #205, #202, #206, #204, #201, #200, #199, #149, #148 ) ) ;
#356 = ORIENTED_EDGE ( 'NONE', *, *, #147, .F. ) ;
#357 = ORIENTED_EDGE ( 'NONE', *, *, #134, .F. ) ;
#358 = ORIENTED_EDGE ( 'NONE', *, *, #144, .F. ) ;
#359 = ORIENTED_EDGE ( 'NONE', *, *, #141, .F. ) ;
#360 = ORIENTED_EDGE ( 'NONE', *, *, #137, .F. ) ;
#361 = ORIENTED_EDGE ( 'NONE', *, *, #153, .F. ) ;
#362 = ORIENTED_EDGE ( 'NONE', *, *, #134, .T. ) ;
#363 = ORIENTED_EDGE ( 'NONE', *, *, #150, .F. ) ;
#364 = ORIENTED_EDGE ( 'NONE', *, *, #146, .T. ) ;
#365 = ORIENTED_EDGE ( 'NONE', *, *, #156, .T. ) ;
#366 = ORIENTED_EDGE ( 'NONE', *, *, #151, .T. ) ;
#367 = ORIENTED_EDGE ( 'NONE', *, *, #158, .F. ) ;
#368 = ORIENTED_EDGE ( 'NONE', *, *, #138, .F. ) ;
#369 = ORIENTED_EDGE ( 'NONE', *, *, #143, .F. ) ;
#370 = ORIENTED_EDGE ( 'NONE', *, *, #145, .F. ) ;
#371 = ORIENTED_EDGE ( 'NONE', *, *, #135, .F. ) ;
#372 = ORIENTED_EDGE ( 'NONE', *, *, #151, .F. ) ;
#373 = VERTEX_POINT ( 'NONE', #89 ) ;
#374 = EDGE_LOOP ( 'NONE', ( #346, #345, #344, #343 ) ) ;
#375 = VERTEX_POINT ( 'NONE', #90 ) ;
#376 = VERTEX_POINT ( 'NONE', #93 ) ;
#377 = VERTEX_POINT ( 'NONE', #91 ) ;
#378 = VERTEX_POINT ( 'NONE', #94 ) ;
ENDSEC;
END-ISO-10303-21;
